Incubus - New Skin Chords & Tabs

 

New Skin Chords & Tabs

Incubus Chords & Tabs

Version: 5 Type: Tab 0 ratings
1 star 2 stars 3 stars 4 stars 5 stars
comments

New Skin Tab

S1: New Skin 
  Written and performed by Incubus 
  As played on S.C.I.E.N.C.E 
  Transcribed by Jaymz Lees 
  Standard Tuning 

  Intro 
  e------------- ------------ 
  b------------- ------------ 
  g----4--4-4--- play 3 times ---4-------- 
  D----4--4-4--- ---4-------- 
  A----2--2-2--- ---2-------- 
  E------------- ------------ 

  Main Riff 
  e-------------------------------- 
  b-------------------------------- 
  g--4-4-4-4-------4-4-4-4-7-7-7--- 
  D--4-4-4-4-3-3-3-4-4-4-4-7-7-7--- 
  A--2-2-2-2-3-3-3-2-2-2-2-5-5-5--- 
  E----------1-1-1----------------- 
[ Tab from: http://www.guitartabs.cc/tabs/i/incubus/new_skin_tab_ver_5.html ]
  Verse - All turn table except this one part 
  e---------- 
  b---------- 
  g---------- 
  D--2--2-2-- 
  A--2--2-2-- 
  D--0--0-0-- 

  e---------------------------------------------- 
  b---------------------------------------------- 
  g--4-4-4-4------5--5-5---4-4-4-4------5--5-5--- 
  D--4-4-4-4--4---5--5-5---4-4-4-4--4---5--5-5--- 
  A--2-2-2-2--4---3--3-3---2-2-2-2--4---3--3-3--- 
  E-----------2---------------------2------------ 

  Chorus 
  e---------------------------------------- 
  b---------------------------------------- 
  g----------9---9-9---5-5-5--10-10-10----- 
  D--7--7-7--9---9-9---5-5-5--10-10-10----- 
  A--7--7-7--7---7-7---3-3-3--8---8--8----- 
  E--5--5-5-------------------------------- 
Comments