Incubus - New Skin Chords & Tabs

 

New Skin Chords & Tabs

Incubus Chords & Tabs

Version: 3 Type: Tab 0 ratings
1 star 2 stars 3 stars 4 stars 5 stars
comments

New Skin Tab

Song - New skin
Band - Incubus
Album - S.C.I.E.N.C.E.
By - Tim Dobson (Spadey)
Tuning - EADGBe 


New skin

Intro:(w/distortion)
P.M.>>>>>>>>>>>>>>>>>>>>
E:--------------------------------------------
B:--------------------------------------------
G:----4-4--------4-4---4-4--------------4-4---
D:----4-4--------4-4---4-4--------------4-4---
A:----2-2--------2-2---2-2--------------2-2---
E:--------------------------------------------

Prechorus:(w/distortion)

E:--------------------------------------------
B:--------------------------------------------
G:----4-4-4-4-------------4-4-4-4-x---7-7-7---
D:----4-4-4-4-x--3-3-3----4-4-4-4-x---7-7-7---
A:----2-2-2-2-x--3-3-3----2-2-2-2-x---5-5-5---
E:--0---------x--1-1-1--0---------------------

Verse:(w/distortion)

E:---------------------------------------
B:--------------------12--------14-------
G:--11-11-11-11-11-11----12--13----14----
D:---------------------------------------
A:---------------------------------------
E:---------------------------------------

2nd Pre-Chorus:(w/distortion)
[ Tab from: http://www.guitartabs.cc/tabs/i/incubus/new_skin_tab_ver_3.html ]
E:-----------------------------------------------
B:-----------------------------------------------
G:--4-4-4-4------5--5-5--x-4-4-4-4------5--5-5---
D:--4-4-4-4--4---5--5-5--x-4-4-4-4--4---5--5-5---
A:--2-2-2-2--4---3--3-3--x-2-2-2-2--4---3--3-3---
E:-----------2----------------------2------------

Chorus:(w/distortion)

E:------------------------------------------
B:------------------------------------------
G:----------9---9-9---7-7-7-----------------
D:--7--7-7--9---9-9---7-7-7--5--5-5-5-------
A:--7--7-7--7---7-7---5-5-5--5--5-5-5-------
E:--5--5-5-------------------3--3-3-3-------

Prechorus:(w/distortion)

E:--------------------------------------------
B:--------------------------------------------
G:----4-4-4-4-------------4-4-4-4-x---7-7-7---
D:----4-4-4-4-x--3-3-3----4-4-4-4-x---7-7-7---
A:----2-2-2-2-x--3-3-3----2-2-2-2-x---5-5-5---
E:--0---------x--1-1-1--0---------------------

2nd Verse:(w/distortion)

E:---------------------------------------
B:--------------------12--------14-------
G:--11-11-11-11-11-11----12--13----14----
D:---------------------------------------
A:---------------------------------------
E:---------------------------------------

I think that this is one of the best songs by Incubus, and
also my band plays it! I'm just rolling those tabs in at the moment
so stay tuned!
Spadey. (CrashedTD@aol.com)
Comments