Incubus - New Skin Chords & Tabs

 

New Skin Chords & Tabs

Incubus Chords & Tabs

Version: 3 Type: Bass Tab 0 ratings
1 star 2 stars 3 stars 4 stars 5 stars
comments

New Skin Bass Tab

   
Bass tab for: New Skin
By: Incubus

As heard on S-C-I-E-N-C-E-
Tabbed by Clarky for: hextab.base.org
All feedback and criticism welcome at: clarky17@hotmail.com
Or ICQ me on: 12554263


G|---------------------------|
D|---------------------------|
A|-22----22---22-------22----|
E|-22----22---22-------22----|


                                          *Pop this note. 
G|----------------------------------------7--|
D|-------------------------------------------|
A|--0h2-2222-2-2-----0h2-2222-2-2--5--555----|
E|--------------1-11-------------------------|
[ Tab from: http://www.guitartabs.cc/tabs/i/incubus/new_skin_btab_ver_3.html ]
 *"at first I see"   *Slap & pop this whole part.
G|----------4-----5----------------|  |------------|
D|---------------------------------|x3|------------|
A|--0h2-x2----xx----x3-3h5-3h5-3h5-|  |------------|
E|---------------------------------|  |--/8-88-88\-|


G|---------------------|
D|---------------------|
A|-22-222------3-3-33--|
E|--------1-1----------|

  *chorus
G|-------------------------------------|
D|-------------------------------------|
A|--------- -7--777-77--3-33/8-888-88--|
E|--/5-5555--0-------------------------|


G|---------------------------|
D|---------------------------|
A|-/3-2-0-2h3-2-0--2-0---0-2-|
E|---------------------3-----|


There all the main sections..
Its all pretty straight forward..
Comments