Incubus - New Skin Chords & Tabs

 

New Skin Chords & Tabs

Incubus Chords & Tabs

Version: 2 Type: Bass Tab 0 ratings
1 star 2 stars 3 stars 4 stars 5 stars
comments

New Skin Bass Tab

   
Song: New Skin
Artist: Incubus
Album: S.C.I.E.N.C.E.
Tabbed by: Garrett(g2x) (renchbass@aol.com www.rench.net)

This song is the best song incubus ever made! If you can 
follow Dirk Lance's bass lines then you definately got skills. 

redweasel56@usa.net was the previous tabber. He got some parts 
right but left out a lot.

p = Pull-off
h = Hammer-on
S = Slap
P = Pop

5 string bass tuned a,E,a,d,g
Intro
  p s    p s    p s     p s
G-----------------------------------------|
D-----------------------------------------|
A-----------------------------------------|
E-----------------------------------------|
A-2-2----2-2----2-2-----2-2---------------|

chorus
  s s s s s s ss s s s s s s ps
G----------------------------7------------|
D-----------------------------------------|
A-0-2-2-2-2----0-2-2-2-2-5-5--5-----------|
E-----------1-1---------------------------|
A-----------------------------------------|
[ Tab from: http://www.guitartabs.cc/tabs/i/incubus/new_skin_btab_ver_2.html ]
verse
  p sp s  s s s s s s                   s s s
G-0--0----------------------------------------|
D---------------------------------------------|
A---0--0--0-2-2-3-0-0------2nd time add 3-3-3-|
E---------------------------------------------|
A---------------------------------------------|

verse 2 
G-----------------------------------------|
D-----------------------------------------|
A-2-2-2-----3-3-3-3-----------------------|
E-------1-1-------------------------------|
A-----------------------------------------|

chorus 2
G-----------------------------------------|
D-----------------------------------------|
A-----------------3-----------------------|
E-5-------0----------------1--------------|
A-----------------------------------------|

bass solo
G-----------------------------------------|
D-----------------------------------------|
A-3-3-0-4-4-0-1-2-------------------------|
E-----------------0-3-4-5-----------------|
A-----------------------------------------|

bass sol0 (part 2) (follow snare drum)
  s s s s s s s s s s 
G-----------------------------------------|
D-----------------------------------------|
A-2-2-2-2-2-0-3-3-3-3---------------------|
E-----------------------------------------|
A-----------------------------------------|

outro
  s s s s s s s 
G-----------------------------------------|
D-----------------------------------------|
A-2-2-2-2-2-2-7---------------------------|
E-----------------------------------------|
A-----------------------------------------|

You should be able to figure out the order.
Comments