Incubus - Nebula Chords & Tabs

 

Nebula Chords & Tabs

Incubus Chords & Tabs

Version: 1 Type: Bass Tab 0 ratings
1 star 2 stars 3 stars 4 stars 5 stars
comments

Nebula Bass Tab

   
Artist:Incubus
Track:Nebula
Album:S.C.I.E.N.C.E

i have a bellybutton

VERSE RIFF:
 G:--------------------------||
 D:--------------------------||
 A:--------------------------||
 E:---/11--11-11-11--7-7-7---||
 B:--------------------------||

HEAVY RIFF 1:
               X 3
 G:------------|--------------------------|-----------------||
 D:------------|--------------------------|-----------------||
 A:---------6--|---------6-------------6--|---------6---6---||
 E:---5--5-----|--5--5-5----5--5-5-5-5----|--5--5-5---5-----||
 B:------------|--------------------------|-----------------||

INTERLUDE RIFF 1:
  X 3
 G:-------------------|--------------------------||
 D:-----4-2-0-2-0-----|--------------------------||
 A:---2-----------4-5-|--------------------------||
 E:-------------------|-3--3--3--3--5--5--5--5---||
 B:-------------------|--------------------------||

BREAKDOWN RIFF:
  X 2
 G:--------------------|--------------------|-------------------------||
 D:--------------------|--------------------|-------------------------||
 A:--------------------|--------------------|--------------------2/---||
 E:--------------------|--------------------|-------------------------||
 B:---3--3-3-3--3-3-3--|--3-3--3-3--3-3-3---|---3--3-3-3--3-3-3-------||
[ Tab from: http://www.guitartabs.cc/tabs/i/incubus/nebula_btab.html ]
 Variation: 
                                            |----------------------------||
                                            |----------------------------||
          same              same            |--------------------2/7*\---||  *=thrill
                                            |----------------------------||
                                            |---3--3-3-3--3-3-3----------||


INTERLUDE RIFF 2:
  X 3
 G:-------------------|----------||
 D:-----4-2-0-2-0-----|----------||
 A:---2-----------4-5-|----------||
 E:-------------------|----------||
 B:-------------------|-0----1---||

INTERLUDE RIFF 3:
 G:----------------------||
 D:----------------------||
 A:----------------------||
 E:-------------3--------||
 B:---0----3---------1---||

HEAVY RIFF 2:
 G:----------------------|--------------------||
 D:----------------------|--------------------||
 A:---------5---------5--|-------5------------||
 E:----------------------|--------------------||
 B:---3--3-----3--3-3----|--3-3----3--3-3-3---||

END:
 G:-------||
 D:-------||
 A:-------||
 E:---7---||
 B:---0---||

RIGHT ORDER:
 Verse riff X 8    " Do you enjoy your sight inside? "
 Heavy riff 1    " Disconnect and let me drift... "
 Interlude riff 1  X 2    " On overdrive! "
 Breakdown riff
 Verse riff X 8    " In little, black book do I confide "
 Heavy riff 1    " Upon return, I conjure what was seen... "
 Interlude riff 1  X 2
 Breakdown riff variation    " Prize, prize, prize "
 Interlude riff 2  X 3
 Interlude riff 3
 Heavy riff 2
 Heavy riff 1
 Interlude riff 1  X 2


another wonderous tab by moi nick watts now fuck off and let me have a shit in peace

Comments