Incubus - Morning View Chords & Tabs

 

Morning View Chords & Tabs

Incubus Chords & Tabs

Version: 1 Type: Tab 0 ratings
1 star 2 stars 3 stars 4 stars 5 stars
comments

Morning View Tab

   
************************************************************
Incubus                                                     
Morning view whole album (its me again)
><(((°>  <°)))>< (maybe this couple of fishes helps you out) 
Maybe i´ll come back with s.c.i.e.n.c.e. who knows

ITS 100% CORRECT
************************************************************
   
Nice to know you 
Normal tuning

Intro
|-7----|
|-10---|
|-11---|
|-9----|
|------|
|------|

Effect setup:

-Delay
-Phaser
What to do: Swell the volume on the guitar to get this streaming sound.


|------------------------------------------------------|
|----------------------p-------------------------------|
|---------7--7-7-------a---------7--7-7----------------|
|-0-4-4-4-7--7-7-0-4-4-u-0-4-4-4-7--7-7-0-4-4-4/7-7-7--|
|-0-4-4-4-5--5-5-0-4-4-s-0-4-4-4-5--5-5-0-4-4-4/7-7-7--|
|-0-2-2-2--------0-2-2-e-0-2-2-2--------0-2-2-2/5-5-5--|
Chorus
Needed for the Chorus:
-Distortion


|-7--------|
|-10-------|
|-11-------|
|-9--------|
|-----~~~--|
|-----~~~--|
Verse
Needed for the Verse:
-Delay
-Phaser
What to do: Just like playing the intro but the ~ means to slide your pick.
You play the swelled notes then you do a pick slide. You can hear it very distintly
in the song. Also when you do the pick slide, you still have delay and phaser on.


|-0---|-0---|-0---|-0---| |--------|
|-0---|-0---|-0---|-0---| |--------|
|-2---|-1---|-4---|-3---| |-7-7\2--| X2
|-2---|-2---|-5---|-4---| |-7-7\2--|
|-0---|-0---|-5---|-4---| |-5-5\0--|_Play this part once 
|-----|-0---|-3---|-2---| |--------|in the middle
PreChorus
What to do: It really does take awhile to tab out the strum pattern...so your
on your own with that. You can still hear how he plays it, those are just the
chords Mike uses. 

|----------0-0-----------0-0-0-0--------------------|
|----------0-0-----------0-0-0-0--------------------|
|----------0-0-----------0-0-0-2--------------------|
|----------4-2-----------4-2/4-2--------------------|
|-0-3-5-0--5-3--0-3-5-0--5-3/5-0--------------------|
|---------------------------------------------------|


|-----------------0-0-0------------------0-0-0----|
|-------------0---0-3-0--------------0---0-0-0----|
|------------0-0--0-0-0-------------0-0--0-0-2----|
|-----------4-----2-2-2------------4-----2/4-2----|
|-0-3-5-0--5------3-3-3--0-3-5-0--5------3/5-0----|
|-------------------------------------------------|

|----------0-0-0-0-----------------0-0-0----------|
|----------0-0-3-0--------------0--0-0-0----------|
|----------0-0-0-0-------------0-0-0-0-2----------|
|----------4-2-2-2------------4----2/4-2----------|
|-0-3-5-0--5-3-3-3--0-3-5-0--5-----3/5-0----------|
|-------------------------------------------------|
Bridge
Find out about the strumming pattern by listening to the song.

|-0--|
|-0--|
|-2--| 
|-2--|
|----|
|----| X2

Circles
Normal tuning

Intro/Outro                                                                
------------------------|------------------------|------------------------|---
------------------------|------------------------|------------------------|---
------------------------|------------------------|------------------------|---
------------------------|------------------------|------------------------|---
-----5-----5-----3-3-3-3|-----5-----5-----3-3-3-3|-----5-----5-----3-3-3-3|---
-0-3---0-3---3-0-5-5-5-5|-0-3---0-3---3-0-5-5-5-5|-0-3---0-3---3-0-5-5-5-5|---
   

------------------------|----------------------------|------------------------
------------------------|----------------------------|------------------------
------------------------|-----------5---------------5|------------------------
-----------------3-5-5-5|-0-0-x-0-0-5-x-x-0-0-x-0-0-5|------------------------
-----1-----1-----3-5-5-5|-0-0-x-0-0-3-x-x-0-0-x-0-0-3|------------------------
-0-3---0-3---3-0-3-5-5-5|-0-0-x-0-0---x-x-0-0-x-0-0--|------------------------
                                                                              
(Credit to Incustank for correction.  Right on Baby')
------------------------------------------------------------------------------
------------------------------------------------------------------------------
-7-7-x-7-/17--7-7-x-7-/17--17-17-17-17-12-12-12-12-8-8-8-8-5-5-5-5---------------
-x-x-x-x-/x-- x-x-x-x-/x---15-15-15-15-10-10-10-10-6-6-6-6-3-3-3-3--x3-----------
-5-5-x-5-/15--5-5-x-5-/15--15-15-15-15-10-10-10-10-6-6-6-6-3-3-3-3---------------
-x-x-x-x-/x-- x-x-x-x-/x---15-15-15-15-10-10-10-10-6-6-6-6-3-3-3-3---------------
  Verse                                                                       

--------------------|------------------|------------------|----------------|--
--------------------|------------------|------------------|----------------|--
--------------------|------------------|------------------|----------------|--
-1-1-0-0---------0-1|-1-0-0---------0-1|-1-0-0---------0-1|-1-0-0---------0|--
-1-1-0-0-3-3-3-3-0-1|-1-0-0-3-3-3-3-0-1|-1-0-0-3-3-3-3-0-1|-1-0-0-3-3-3-3-0|--
-1-1-0-0-5-5-5-5-0-1|-1-0-0-5-5-5-5-0-1|-1-0-0-5-5-5-5-0-1|-1-0-0-5-5-5-5-0|--
  Pre-chorus                                                                  







------------------------------------------------------------------------------
------------------------------------------------------------------------------
-7-7-7-7-7-7-7-7-7-7-7-7-/5-5/-7-7-7-7-7-7-7-7-7-7-7-7-/5-5/------------------
-x-x-x-x-x-x-x-x-x-x-x-x-/x-x/-x-x-x-x-x-x-x-x-x-x-x-x-/x-x/------------------
-5-5-5-5-5-5-5-5-5-5-5-5-/3-3/-5-5-5-5-5-5-5-5-5-5-5-5-/3-3/-x1---------------
-0-0-0-0-0-0-0-0-0-0-0-0-/0-0/-0-0-0-0-0-0-0-0-0-0-0-0-/0-0/------------------
  chorus                                                                      

-------------------|----------------------------------------------------------
-------------------|----------------------------------------------------------
-------------------|----------------------------------------------------------
-3-3--3/-8-8-8-8---|----------------------------------------------------------
-3-3--3/-8-8-8-8-x1|----------------------------------------------------------
-3-3--3/-8-8-8-8---|----------------------------------------------------------
                                                                              

---------|----------|--------|----------|-------------------------------------
---------|----------|--------|----------|-------------------------------------
---------|----------|--------|----------|-------------------------------------
--5-0----|-5-0----1-|-5-0----|-5-0----1-|-------------------------------------
--5-0--1-|-5-0--1-1-|-5-0--1-|-5-0--1-1-|-------------------------------------
--5-0--3-|-5-0--3-1-|-5-0--3-|-5-0--3-1-|-------------------------------------
  bridge

Wish you were here
Normal tuning

Intro (clean)                               

-0--0-0-0-0--0--0-0-0-0------------------0-|----------------------------------
-0--0-0-0-0--0--0-0-0-0------------------0-|----------------------------------
-4--4-4-4-4--4--4-4-4-4------------------4-|-9/-11----------------------------
-2--2-2-2-2--2--2-2-2-2--4--4-4-4/-7---2-2-|-x/-x-----------------------------
-0--0-0-0-0--2--2-2-2-2--4--4-4-4/-7---2-2-|-7/-9-----------------------------
-------------0--0-0-0-0--2--2-2-2/-5---0---|----------------------------------
                                            
                                              last time                        

-0--0-0-0-0--0--0-0-0-0-------------------------------------------------------
-0--0-0-0-0--0--0-0-0-0-------------------------------------------------------
-4--4-4-4-4--4--4-4-4-4-------------------------------------------------------
-2--2-2-2-2--2--2-2-2-2--4--4-4-4/-7--2-2-------------------------------------
-0--0-0-0-0--2--2-2-2-2--4--4-4-4/-7--2-2-------------------------------------
-------------0--0-0-0-0--2--2-2-2/-5--0-0-------------------------------------
 Chorus (distortion)                                                          


--------------------------12--------------------------------------------------
---7---7---7-----------------9h10---------------------------------------------
-9---9---9---6---------11-----------------------------------------------------
------------------9h11--------------------------------------------------------
------------------------------------------------------------------------------
------------------------------------------------------------------------------
 Verse (delay & reverb)                                                       

------------------------------------------------------------------------------
---7---7---7-------------9------------7-7-------------------------------------
-9---9---9---6---------9---11-9-11-9--9-9-------------------------------------
------------------9h11--------------------------------------------------------
------------------------------------------------------------------------------
------------------------------------------------------------------------------
                                                                              



-0----------------------------------------------------------------------------
-0----------------------------------------------------------------------------
-2----------------------------------------------------------------------------
-2----------------------------------------------------------------------------
-0----------------------------------------------------------------------------
-0----------------------------------------------------------------------------
 Bridge (phaser)                                                              

------------------------------------------------------------------------------
------------------------------------------------------------------------------
------------------------------------------------------------------------------
-7----------------------------------------------------------------------------
-7----------------------------------------------------------------------------
-5----------------------------------------------------------------------------
 Ending (last chord at the end of the song) let ring...

Just a phase
Normal tuning

Intro
   X4
e|------------------------------------------|-0-|------------------------
b|------------------------------------------|-0-|-Listen to Cd to find out
G|----------------6--4-------5--------------|-11|-strum pattern of this 
D|-------0h4-5-0---7--5--5h7---0----------0-|-0-|-chord.
A|-----4-------------------------0------9---|-9-|-
E|-0-5--------------------------------7-----|-7-|------------------------


e|-----------------------------|-0-|--------------------------
B|-----------------------------|-0-|-Strum pattern same as
G|-1--1-1-1-1-1--1--1--1--1-1--|-11|-the xx1220 chord
D|-2--2-2-2-2-2--2--2--2--2-2--|-0-|-
A|-2--2-2-2-2-2--2--2--2--2-2--|-9-|-
E|-0--0-0-0-0-0--0--0--0--0-0--|-7-|--------------------------

  ----------------------------|
  ----------------------------|
  -1--1-1-1-1-1--1--1--1--1-1-|
  -2--2-2-2-2-2--2--2--2--2-2-|
  -2--2-2-2-2-2--2--2--2--2-2-|
  -0--0-0-0-0-0--0--0--0--0-0-|


- Intro X4


e|----------------------------|-0-|-------------------------
B|----------------------------|-0-|Strum pattern the same as
G|-1--1-1-1-1-1--1--1--1--1-1-|-11|usual...
D|-2--2-2-2-2-2--2--2--2--2-2-|-0-|
A|-2--2-2-2-2-2--2--2--2--2-2-|-9-|
E|-0--0-0-0-0-0--0--0--0--0-0-|-7-|-------------------------

  


  --------------------------------------------------------
  --------------------------------------------------------
  -1--1-1-1-1-1--1--1--1--1-1--4--4-4-4-4-4--4--4--4--4-4-
  -2--2-2-2-2-2--2--2--2--2-2--5--5-5-5-5-5--5--5--5--5-5-
  -2--2-2-2-2-2--2--2--2--2-2--5--5-5-5-5-5--5--5--5--5-5-
  -0--0-0-0-0-0--0--0--0--0-0--3--3-3-3-3-3--3--3--3--3-3-

  ----------------------------|
  ----------------------------|
  -3--3-3-3-3-3--3--3--3--3-3-|
  -4--4-4-4-4-4--4--4--4--4-4-|
  -4--4-4-4-4-4--4--4--4--4-4-|
  -2--2-2-2-2-2--2--2--2--2-2-|

Verse

e|---------------------------------------|--------------|
B|-------0-------------------------0-----|-----5--------|
G|-------6------------0------------6-----|-----6--------|
D|-----6---6--------4-5-4--------6---6---|---6----6-----|
A|---7-------7----5-------5----7-------7-|-4----------6-|
E|-0------------3------------0-----------|----------4---|


e|---------------------------------------|--------------|
B|-------0-------------------------0-----|-----5--------|
G|-------6------------0------------6-----|----6---------|
D|-----6---6--------4-5-4--------6---6---|---6----6-----|
A|---7-------7----5-------5----7-------7-|-4----------6-|
E|-0------------3------------0-----------|----------4---|

Pre-chorus

e|--------------------------------------------------------------------------------|
B|--------------------------------------------------------------------------------|
G|-------0---------------------0-----------------0--------------------0-----------|
D|-----6---6-------6---6-----6---6------6-------6---6------6---6-----6---6-----6--|
A|---4-------4-------------4-------4---------4-------4------------4-------4-------|
E|-5-------------5---4---5------------5----5------------5---4---5------------5----|

Chorus
  pm..................................
e|------------------------------------|
b|------------------------------------|
G|-5-5-5------------------------------|
D|-5-5-5-6-6-2-2--7--7-7--7-7---5-5-5-|
A|-3-3-3-6-6-2-2--7--7-7--7-7---5-5-5-|
E|-------4-4-0-0--5--5-5--5-5---3-3-3-|

11 am
Normal tuning

Intro
   X3 
e|-------------------------------|--------------------------------------|
B|---------5-5-5-----------------|---------5----------------------------|
G|---------4-4-4-----------------|---------4p0--------------------------|
D|-2--X-X--2-2-2---------2p0-----|--2-X-X--2--------0-4-----0---2p0---0-|
A|-2--X-X--2-2-2-----3---------3-|--2-X-X--2---0--0-----5\3---------3---|
E|-0--X-X--0-0-0---3---3-----3---|--0-X-X--0------5---------------------|


Intro & Chorus


e|-----------------------------|------------------------------------|
B|---------5-5-5---------------|---------5--------------------------|
G|---------4-4-4---0---0-0-0-0-|---------4-----------0--------------|
D|-2--X-X--2-2-2---2---2-2-2-2-|--2-X-X--2-----0---0-5---0--2p0---0-|
A|-2--X-X--2-2-2---3-X-3-3-3-3-|--2-X-X--2---2---0-----3--------3---|
E|-0--X-X--0-0-0---0-X-0-0-0-0-|--0-X-X--0--------------------------|


e|--------------------------------------------------------|
B|---------5-5-5--------1-1-1-1---5--X-X--5-5-5---1-1-1-1-|
G|---------4-4-4----0---0-0-0-0---4--X-X--4-4-4---0-0-0-0-|
D|-2--X-X--2-2-2----2---2-2-2-2---2--X-X--2-2-2---2-2-2-3-|
A|-2--X-X--2-2-2----3-X-3-3-3-3---0--X-X--0-0-0---3-3-3-3-|
E|-0--X-X--0-0-0----0-X-0-0-0-0-------------------0-0-0-0-|

Verse
                               X2
e|---------------------------|------------------------|
B|---------5-5-5-------------|---------5-5-5----------|
G|---------4-4-4-------------|---------4-4-4----------|
D|-2--X-X--2-2-2-----2p0-----|--2-X-X--2-2-2----2p0---|
A|-2--X-X--2-2-2-----------3-|--2-X-X--2-2-2----------|
E|-0--X-X--0-0-0---3-----3---|--0-X-X--0-0-0--3-------|

e|--------------------------|
B|---------1-1-1------------|
G|---0-0---0-0-0------------|
D|-4-4-4---2-2-2--0h2p0---0-|
A|-5-5-5---3-3-3--------3---|
E|--------------------------|


e|---------------------------|------------------------------|
B|---------5-5-5-------------|---------5-5-5----------------|
G|---------4-4-4-------------|---------4-4-4----------------|
D|-2--X-X--2-2-2-----2p0-----|--2-X-X--2-2-2--------2p0---0-|
A|-2--X-X--2-2-2-----------3-|--2-X-X--2-2-2----3-----------|
E|-0--X-X--0-0-0---3-----3---|--0-X-X--0-0-0--3---3---------|

------------------------|--------------------------|
---------5-5-5----------|---------1-1-1------------|
---------4-4-4----------|---0-0---0-0-0------------|
--2-X-X--2-2-2----2p0---|-4-4-4---2-2-2--0h2p0---0-|
--2-X-X--2-2-2----------|-5-5-5---3-3-3--------3---|
--0-X-X--0-0-0--3-------|--------------------------|

- Chorus
- Verse


e|------------------------------------------------0----
B|-------------------------------------------------0---
G|-----4---4-4-----4-----4------4---4-4-----4-------4--
D|---2---2-----2-----2--------2---2-----2-----2------2-
A|-0-------------0-----0----3-------------3-----3------
E|-----------------------------------------------------



  -0--0--0-0--0-0-0-0-0-0--0--0-0-0--0--0-0-0-|
  -0--0--0-0--0-0-0-0-0-0--0--0-0-0--0--0-0-0-|
  -4--4--4-4--4-4-4-4-4-4--4--4-4-4--2--2-2-2-|
  -2--2--2-2--2-2-2-2-2-2--5--5-5-5--3--3-3-3-|
  -------------------------5--5-5-5--3--3-3-3-|
  -------------------------3--3-3-3--1--1-1-1-|


e|----3-3-3--1-|---0--0-0-0-0--0-0--0--0-0-0-0-|
B|----3-3-3--1-|-0----0-0-0-0--3-3-----3-3-3-3-|
G|----4-4-4--2-|-1----1-1-1-1--1-1-----1-1-1-1-|
D|-5--5-5-5--3-|-2----2-2-2-2--2-2-----2-2-2-2-|
A|-5--5-5-5--3-|-2----2-2-2-2--2-2-----2-2-2-2-|
E|-3--3-3-3--1-|-0-----------------------------|

- Chorus

End

e|-0-|
B|-0-|
G|-1-|
D|-2-|
A|-2-|
E|---|

Blood on the ground
Normal tuning
[ Tab from: http://www.guitartabs.cc/tabs/i/incubus/morning_view_tab.html ]
|-----0------|-----|-x-x---x-----x-x---x-------------|-------------------------|
|----7-------|-x-x-|-7-7-x-7-x-x-7-7-x-7-------------|---7b--------------------|
|---5--------|-x-x-|-5-5-x-5-x-x-5-5-x-5-------------|---5b--------------------|
|--7---------|-x-x-|-7-7-x-7-x-x-7-7-x-7--9-9\-3-3-0-|---7b--------------------|
|-0----------|-x-x-|-0-0-x-0-x-x-0-0-x-0--9-9\-3-3-0-|-------------------------|
|------------|-x-x-|-----x---x-x-----x----9-9\-3-3-0-|-------------------------|
 A1           A2    A3                                A4 (Second Guitar)                             
 (X1)         (X1)  (X8)                              (X1 on the X4 of A3)


Chorus: This part contains heavy distortion.

|--------------------------|------------------------|
|-7--7--x-x--7-7-----------|------------------------|
|-5--5--x-x--5-5-----------|------------------------|
|-7--7--x-x--7-7--9-9\-3-3-|5-5-5-5-5-3-3-3-3-3-3-3-|
|-0--0--0-0--0-0--9-9\-3-3-|5-5-5-5-5-3-3-3-3-3-3-3-|
|-0--0--0-0--0-0--9-9\-3-3-|5-5-5-5-5-3-3-3-3-3-3-3-|
 B1                         B2
 (X3)                       (X1)

Verse: This part is in clean tone.                                                                              

|-----------------------------------|
|-----------------------------------|
|-----------------------------------|
|-----0--------7--------5-------5---|
|---0---0----7---7----3---3---5---5-|
|-0--------7--------5-------3-------|


PreChorus: This part contains heavy distortion

|--------------------|
|--------------------|
|--------------------|
|-9-9-9/3-3-3-0-x-3--|
|-9-9-9/3-3-3-0-x-3--|
|-9-9-9/3-3-3-0-x-3--|
                                                                              

PreBridge: This part contains heavy distortion

|------------------------------------------------------------------------------
|------------------------------------------------------------------------------
|------------------------------------------------------------------------------
|-0-0--x-x--0-0--9-9\-3-3-0----------------------------------------------------
|-0-0--x-x--0-0--9-9\-3-3-0----------------------------------------------------
|-0-0--x-x--0-0--9-9\-3-3-0----------------------------------------------------


Bridge:

|-----------------------------------------0----------|
|--------------------------------7-7b7---7-----------|
|-(0)------0------------------0--5-5b5--5-----0-0----|
|------3--------3-0-----3---3----------0------0-0----|
|----5---5------5---0-2---2--------------------------|
|--5----------5--------------------------------------|
 (Phaser/ Lite Distortion)


End with:

|-0-------|
|-7-------|
|-5-------|
|-7-------|
|-0-------|
|---------|

X10

Mexico
Normal tuning

Intro:
E|-----0--0----0--0--------------0--0-|
B|-----0--0----0--0--------------0--0-|
G|-----------------------7--7---------|
D|----9--9----5--5-------0--0---------|
A|-5/7--7----3--3-------8--8----3--3--|
E|-------------------5h6--6----1--1---|

Verse:
E|-------------0--0--------------0--0-|
B|-----8--8----0--0--------------0--0-|
G|-----9--9--------------7--7---------|
D|----9--9----5--5-------0--0---------|
A|-5/7--7----3--3-------8--8----3--3--|
E|-------------------5h6--6----1--1---|

Chorus1:

E|----------------------------|
B|-----------------0----------|
G|----0--2-22-2---0-0--2-22-2-|
D|---4-4-0-00-0--5---5-2-22-2-|
A|--2----0-00-0-3------0-00-0-|
E|-0--------------------------|

E|------------------------|
B|------------------------|
G|----0--2-22-2-7777-5555-|
D|---4-4-0-00-0-7777-5555-|
A|--2----0-00-0-5555-3333-|
E|-0----------------------|

Chorus2 (singing): play A then 
play B b4 Chorus1  

    A	       B
E|---------||-----|
B|---------||-----|
G|-----4-5-||-6-5-|
D|-5-4-4-5-||-5-5-|
A|-5-2-2-3-||-4-3-|
E|-3-2-----||-----|

Warning
Normal tuning
------------------------------|--------------------------------|--------------
------------------------------|--------------------------------|--------------
-8-/-6-/-8-/-6-/-6-/-6-/-4--3-|-8-/-6-/-8-/-6-/-8-/-6-/--------|--------------
-x-/-x-/-x-/-x-/-x-/-x-/-x--x-|-x-/-x-/-x-/-x-/-x-/-x-/-2--5--4|-4---4--4---4-
-6-/-4-/-6-/-4-/-6-/-4-/-2--1-|-6-/-4-/-6-/-4-/-6-/-4-/-2--5--4|-4---4--4---4-
-7-/-5-/-7-/-5-/-7-/-5-/-3--2-|-7-/-5-/-7-/-5-/-7-/-5-/-0--3--2|-2---2--2---2-
                                                                 Delay        

--------------------------------|---------------------------------------------
--------------------------------|---------------------------------------------
--------------------------------|----4-4-4-4--4-4-4-/-6-6-6-/-4-4-4-4--4-4-4/-
-2--4-------2--4-------2--4-----|-2--4-4-4-4--4-4-4-/-x-x-x-/-4-4-4-4--4-4-4/-
-2--4-x4----2--4-x4----2--4-x4--|-2--2-2-2-2--2-2-2-/-4-4-4-/-2-2-2-2--2-2-2/-
-0--2-------0--2-------0--2-----|-0--2-2-2-2--2-2-2-/-5-5-5-/-2-2-2-2--2-2-2/-
      delay      delay      delay                                             

--------------------------------------------------|-------------------------|-
--------------------------------------------------|-------------------------|-
-6-6-6-/-4-4-4-4--4-4-4-/-6-6-6-/-----------------|-------------------------|-
-x-x-x-/-4-4-4-4--4-4-4-/-x-x-x-/-5-5-5-5--4-4-4-4|-2-2-2-2--5-5-5-5--4-2-4-|-
-4-4-4-/-2-2-2-2--2-2-2-/-4-4-4-/-5-5-5-5--4-4-4-4|-2-2-2-2--5-5-5-5--4-2-4-|-
-5-5-5-/-2-2-2-2--2-2-2-/-5-5-5-/-3-3-3-3--2-2-2-2|-0-0-0-0--3-3-3-3--2-0-2-|-
                                                    Sub every other measure   

--------|--------|--------|--------|--------|--------|--------|--------|------
-4------|-4------|-4------|--------|-4------|-4------|-4------|--------|------
---4-3-4|---4-3-4|---4-3-4|-7-4-7-6|---4-3-4|---4-3-4|---4-3-4|-7-4-7-6|------
--------|--------|--------|--------|--------|--------|--------|--------|------
--------|--------|--------|--------|--------|--------|--------|--------|------
--------|--------|--------|--------|--------|--------|--------|--------|------
Echo
Normal tuning



E------0-----------------------------------------------------------
B------0--------------------------------------------------------
G--------2/4-4/7-7/9-9b/7-7-------4---4/7--7/4--4-4b/2-2-------
D--------2/4-4/7-7/9-9b/7-7-----4-----4/7--7/4-4--4b/2-2------
A----0----------------------0^2-------------------------------------
D--0-------------------------------------------------------------

There'ssomething about ...
x2
E--0----------0----------0---------------------0----------0------------
B---0-------0---0------3---3-----------------0---0------3---3-----------
G----2----2-------2----4-----4------2/4----2-------2----4-----4-----2/4----
D-----0-------------4--4-------4----2/4--------------4--4-------4---2/4---
A------0---------------2---------2----------------------2---------2------
D-------0-------------------------------0-------------------------------0--

Mybiggest fear ...
x2
E----------------------------------------------------
B--------7----------7--------6----------6----6------
G--------7---------7---------5---------5-----5-------
D--------5--------5----------3--------3------3-------
A----5--------5----------3--------3----------3------
D--5---5----5---5------3---3----3---3--------3-------

Guitarsolo. I think they are harmonics, but can't
findthem. Who knows, maybe is an effect...
E---------------------------------------------------------7----------------
B--12-10-7---------------------------------------------7----10-7------------
G----------9b-7b------------------------7-9-7--7-9-7-9-----------9b-7--------
D----------------9b-7-9-------------7-9-------------------------------9-7---
A------------------------7-9-7--7-9----------------------------------------
D---------------------------------------------------------------------------

Have You Ever
Drop d tuning
Intro:
e:-----------------------------
B:-----------------------------
G:-----------------------------
D:--00-5-00-5-00-55-0-0-3-8-8--
A:--00-5-00-5-00-55-0-0-3-8-8--
D:--00-5-00-5-00-55-0-0-3-8-8--

Verse:
e:--------------------------------------------
B:--------------------------------------------
G:--------------------------------------------
D:--111-0-1---55-77-33-55-1111-0-1-888888888--
A:--111-0-1---55-77-33-55-1111-0-1-888888888--
D:--111-0-1---55-77-33-55-1111-0-1-888888888--

 continued...
e:---------------------------------------------
B:---------------------------------------------
G:------------------------------------------8--
D:--111-0-1---55-77-33-55-1111-0-1-88888888-8--
A:--111-0-1---55-77-33-55-1111-0-1-88888888-6--
D:--111-0-1---55-77-33-55-1111-0-1-88888888----

Chorus:
e:---------------------------------------
B:---------------------------------------
G:--------55---7-7777-77-------------55--
D:--0h3p0-55-0-7-7777-77--88-55-3-33-55--
A:--0h3p0-33-0-5-5555-55--88-55-3-33-33--
D:--0h3p0----0------------88-55-3-33-----

 second time
e:---------------------------------------
B:---------------------------------------
G:--------55---7-7777-77--77---------55--
D:--0h3p0-55-0-7-7777-77--77-88-3-33-55--
A:--0h3p0-33-0-5-5555-55--55-88-3-33-33--
D:--0h3p0----0---------------88-3-33-----

Bridge:
  delay
e:-----------------------------------------
B:-----------------------------------------
G:--------------------7--------0-----------
D:----3-----10----0-------3---------5---7--
A:---3-----8-----0-------3----8----5-------
D:--3-----8-----0-------3----8----5--------

Are you in
Normal tuning

Intro: /w Volume Swell 
e|-------------------------------------------------------------------|
B|-----10----------------10---14---14---10--9--7--5------------------|
G|-----9-------14---12---9----14---14---11------------(7)------------|
D|-/x--------------------12---14---14-----------------(7)-----/x-----|
A|-/x-------------------------------------------------(7)-----/x-----|
D|-/x---------------------------------------------------------/x-----|
                                                       .........Dive down 
                                                                slowly with bar
Verse:
e|----------------(12)---------|
B|----------(12)--------(7)----|
G|-----------------------------|
D|-----(7)---------------------|
A|-(7)-------------------------|
D|-----------------------------|


Chorus: /w Volume swell
e|---------------------|
B|-10-----14-----10----|
G|-9------14-----11----|
D|-12-----14-----11----|
A|---------------------|
D|---------------------|









Break: Clean Sound
e|--------------------------------------------------------------------------|
B|----------------------------10--------------------------------------------|
G|--------------------------------------------------------------------------|
D|-------7--9^---9-----7---9^-----9--7--9^--9-----------------------7-------|
A|-7h9-------------7h9-------------------------7h9----------7---7h9----9----|
D|-------------------------------------------------9---9h11-----------------|

e|----------------17-----|------------|
B|-----------------------|------------|
G|--------14--16^----16--|-/16---14---|
D|-14h16-----------------|------------|
A|-----------------------|------------|
D|-----------------------|------------|


Break 2: A lot of pick Scrapes /w Feedback
e|------------------------------------------------------------------------|
B|------------------------------------------------------------------------|
G|------------------------------------------------------------------------|
D|-/x--------/x------------/x-------------/x--------------/x---------/x---|
A|-/x--------/x------------/x-------------/x--------------/x---------/x---|
D|-/x--------/x------------/x-------------/x--------------/x---------/x---|


End:
e|-12---12-------------------11--10--9---8---7-------------------------|
B|-10---10-------------------9---8---7---6---5---11--10--9---8---------|
G|-9----9--------------------8---7---6---5---4---8---7---6---5---------|
D|-12---12---------------------------------------9---8---7---6-----/x--|
A|-----------------------------------------------------------------/x--|
D|-----------------------------------------------------------------/x--|
         ...Dive up and 
            release with bar


Under my umbrella
Normal tuning

Intro (Distortion)

------------------------------------------------------------------------------
------------------------------------------------------------------------------
x-10-10-10-x-10-10-10-x-10-10-10-x-10-10-10-x-10-10-10-x-10-10-11-x-10-10-10--
x-10-10-10-x-10-10-10-x-10-10-10-x-10-10-10-x-11-11-11-x-11-11-11-x-11-11-11--
x-8--8--8--x-8--8--8--x-8--8--8--x-8--8--8--x-11-11-11-x-11-11-11-x-11-11-11--
-----------------------------------------------9--9--9--x-9--9--9-x-9--9--9---
                                                                              

------------------------------------------------------------------------------
------------------------------------------------------------------------------
-10-10-10----------------------------10-10-10------------x-66//8888\\6--------
-11-11-11-3-3-3-x-3-3-3-x-3-3-3-////-10-10-10-666666666--x-66//8888\\6--------
-11-11-11-3-3-3-x-3-3-3-x-3-3-3-////-8--8--8--666666666--x-44//6666\\4--------
-9--9--9--1-1-1-x-1-1-1-x-1-1-1-////----------444444444-----------------------





Verse

------------------------------------------------------------------------------
------------------------------------------------------------------------------
---10-10-8-8-1----------10-10-8-8-0----------10-10-8-8-1---------10-10-8-8-5--
------------------------------------------------------------------------------
------------------------------------------------------------------------------
------------------------------------------------------------------------------
 
Chrous
------------------------------------------------------------------------------
------------------------------------------------------------------------------
x-10-10-10-x-10-10-10-x-10-10-10-x-10-10-10-x-10-10-10-x-10-10-11-x-10-10-10--
x-10-10-10-x-10-10-10-x-10-10-10-x-10-10-10-x-11-11-11-x-11-11-11-x-11-11-11--
x-8--8--8--x-8--8--8--x-8--8--8--x-8--8--8--x-11-11-11-x-11-11-11-x-11-11-11--
-----------------------------------------------9--9--9--x-9--9--9-x-9--9--9---
                                                                              

------------------------------------------------------------------------------
------------------------------------------------------------------------------
----------------------------10-10-10------------x-66//8888\\6-----------------
-3-3-3-x-3-3-3-x-3-3-3-////-10-10-10-666666666--x-66//8888\\6-----------------
-3-3-3-x-3-3-3-x-3-3-3-////-8--8--8--666666666--x-44//6666\\4-----------------
-1-1-1-x-1-1-1-x-1-1-1-////----------444444444-------------------------------


------------------------------------------------------------------------------
------------------------------------------------------------------------------
x-10-10-10-x-10-10-10-x-10-10-10-x-10-10-10-x-10-10-10-x-10-10-11-x-10-10-10--
x-10-10-10-x-10-10-10-x-10-10-10-x-10-10-10-x-11-11-11-x-11-11-11-x-11-11-11--
x-8--8--8--x-8--8--8--x-8--8--8--x-8--8--8--x-11-11-11-x-11-11-11-x-11-11-11--
-----------------------------------------------9--9--9--x-9--9--9-x-9--9--9---
                                                                              

------------------------------------------------------------------------------
------------------------------------------------------------------------------
------------------------------------------88\\66------------------------------
-6-6-6-x-6-6-6-x-6-6-6-x-6-6-6--333333333-88\\66------------------------------
-6-6-6-x-6-6-6-x-6-6-6-x-6-6-6--333333333-66\\44------------------------------
-4-4-4-x-4-4-4-x-4-4-4-x-4-4-4--111111111-------------------------------------
 

Bridge(Distortion)                                                           

------------------------------------------------------------------------------
------------------------------------------------------------------------------
-----------88\\66-------------88888--6-----------------------------------------
-66\-33----88\\66---x3--then--88888--6-----------------------------------------
-66\-33----66\\44-------------66666--4-----------------------------------------
-44\-11------------------------------------------------------------------------


 Part after bridge (some sort of effect)                                      

------------------------------------------------------------------------------
------------------------------------------------------------------------------
-5////12\\\9\\7-h9---5////12\\\9\\<7>--5///12\\\9\\7-h9--5///12\\9--<7>-------
------------------------------------------------------------------------------
------------------------------------------------------------------------------
------------------------------------------------------------------------------

Arqueous transmisión

Open d tuning
d|---------------------------------------------------------------------------|
a|---------------------------------------------0-----------------0-----------|
g|-----------14--11b-----------4b--2b-------4-----4-----------4-----4--------|
D|--------0-------------------0----------2-----------2-----------------------|
A|-----0---------------------0-----------------------------2-----------2-----|
D|--0-----------------------0------------------------------------------------|
Comments