Incubus - Mexico Chords & Tabs

 

Mexico Chords & Tabs

Incubus Chords & Tabs

Version: 9 Type: Tab 0 ratings
1 star 2 stars 3 stars 4 stars 5 stars
comments

Mexico Tab

Band: Incubus
Song: Mexico
Album: Morning View
Tabbed By: FaTSkUnK

Intro & Verse

e|-----0-----0-----0-----0--------------------0-----0-|
B|-----0-----0-----0-----0----------------------------|
G|--------------------------------7-----7-----2-----2-|
D|---9-----9-----5-----5----------0-----0-------------|
A|-7-----7-----3-----3----------8-----8-----3-----3---|
E|--------------------------0h6-----6-----1-----1-----|

e|-----------------0-----0--------------------0-----0-|
B|-----8-----8-----0-----0----------------------------|
G|-----9-----9--------------------7-----7-----2-----2-|
D|---9-----9-----5-----5----------0-----0-------------|
A|-7-----7-----3-----3----------8-----8-----3-----3---|
E|--------------------------0h6-----6-----1-----1-----|


Chorus

e|-------------------------------------------------------|
B|----------------------------------0--------------------|
G|------4-4-4---------------------0---0------------------|
D|---2--4-4-4-x-5--5-5-5-5-5----5-------0-7--7-7-7-7-7-x-|
A|---2--2-2-2-x-5--5-5-5-5-5--3-----------7--7-7-7-7-7-x-|
E|-0-0--0-0-0-x-3--3-3-3-3-3--------------5--5-5-5-5-5-x-|


e|----------------------------------------------------|
B|----------------------------------------------------|
G|------4-4-4----------------7--7-7-7-7--5--5-5-5-5-x-|
D|---2--4-4-4-x-5--5-5-5-5-5-7--7-7-7-7--5--5-5-5-5-x-|
A|---2--2-2-2-x-5--5-5-5-5-5-5--5-5-5-5--3--3-3-3-3-x-|
E|-0-0--0-0-0-x-3--3-3-3-3-3--------------------------|

Pre-Verse

e|-----0-----0-----0-----0---------------------0-----0-|
B|-----0-----0-----0-----0-----------------------------|
G|---------------------------------7-----7-----2-----2-|
D|---9-----9-----5-----5-----------0-----0-------------|
A|-7-----7-----3-----3-----3-0---8-----8-----3-----3---|
E|-----------------------------6-----6-----1-----1-----|
[ Tab from: http://www.guitartabs.cc/tabs/i/incubus/mexico_tab_ver_9.html ]
e|-----------------0-----0---------------------0-----0-|
B|-----8-----8-----0-----0-----------------------------|
G|-----9-----9---------------------7-----7-----2-----2-|
D|---9-----9-----5-----5-----------0-----0-------------|
A|-7-----7-----3-----3-----3-0---8-----8-----3-----3---|
E|-----------------------------6-----6-----1-----1-----|

- Verse
- Chorus

Interlude
   X3
e|-----------------------------------------|------------------------------|
B|-----------------------------------------|------------------------------|
G|-----------------------4-4-4-4-4-5-5-5-5-|-2-2-2-2-2-2-2----------------|
D|-5-5-5-5-5--6-6-6-6-6--4-4-4-4-4-5-5-5-5-|-2-2-2-2-2-2-2--3-3-3-3-3-3-3-|
A|-5-5-5-5-5--5-5-5-5-5--2-2-2-2-2-3-3-3-3-|-0-0-0-0-0-0-0--3-3-3-3-3-3-3-|
E|-3-3-3-3-3--6-6-6-6-6--------------------|----------------1-1-1-1-1-1-1-|

- Chorus

Ending

e|-----0-----0-----0-----0---------------------0-----0-|
B|-----0-----0-----0-----0-----------------------------|
G|---------------------------------7-----7-----2-----2-|
D|---9-----9-----5-----5-----------0-----0-------------|
A|-7-----7-----3-----3-----3-0---8-----8-----3-----3---|
E|-----------------------------6-----6-----1-----1-----|

e|-----------------0-----0---------------------0-----0-0-|
B|-----8-----8-----0-----0-------------------------------|
G|-----9-----9---------------------7-----7-----2-----2-2-|
D|---9-----9-----5-----5-----------0-----0---------------|
A|-7-----7-----3-----3-----3-0---8-----8-----3-----3-----|
E|-----------------------------6-----6-----1-----1-------|

e|-----0-----0-----0-----0---------------------0-----0-|
B|-----0-----0-----0-----0---------------------------0-|
G|---------------------------------7-----7-----2-----2-|
D|---9-----9-----5-----5-----------0-----0-----------0-|
A|-7-----7-----3-----3-----3-0---8-----8-----3-----3---|
E|-----------------------------6-----6-----1-----1-----|

e|-----------------0-----0---------------------0----0-|
B|-----8-----8-----0-----0--------------------------0-|
G|-----9-----9---------------------7-----7-----2----2-|
D|---9-----9-----5-----5-----------0-----0----------0-|
A|-7-----7-----3-----3-----3-0---8-----8-----3------3-|
E|-----------------------------6-----6-----1-----1----|
Comments