Incubus - Mexico Chords & Tabs

 

Mexico Chords & Tabs

Incubus Chords & Tabs

Version: 3 Type: Tab 0 ratings
1 star 2 stars 3 stars 4 stars 5 stars
comments

Mexico Tab

#----------------------------------PLEASE NOTE--------------------------------#
#This file is the author's own work and represents their interpretation of the#
#song. You may only use this file for private study, scholarship, or research.#
#-----------------------------------------------------------------------------#
#-- File created with Instab - http://www.pconline.com/~smcarey/instab.html --#
#-----------------------------------------------------------------------------#

Author/Artist: Incubus
Title: Mexico
Album: Morning View
Transcribed by: huskers420
Email: fto2345821@aol.com

Acoustic, Standard Tuning

-|-----0-----0-----0-----0-------------------0-----0-----0-----0-----0-----0--
-|-----0-----0-----0-----0-------------------x-----x-----8-----8-----0-----0--
-|-------------------------------7-----7-----2-----2--------------------------
-|---9-----9-----5-----5---------0-----0---------------9-----9-----5-----5----
-|-7-----7-----3-----3---------8-----8-----3-----3---7-----7-----3-----3------
-|-------------------------0-6-----6-----1-----1------------------------------
 Intro and verse                                                              

-|-------------------0-----0-|------------------------------------------------
-|-------------------x-----x-|-----0-0-0---------------------------0----------
-|-------7-----7-----2-----2-|-----0-0-0-0-0---0-0-0-0-0-0-0-----0-0-0---0----
-|-------0-----0-------------|-------4-4-0-0---0-0-0-0-0-0-0---5---------2----
-|-----8-----8-----3-----3---|---2---------x---x-x-x-x-x-x-x-3---------0-0----
-|-0-6-----6-----1-----1-----|-0-----------3---3-3-3-3-3-3-3------------------
                              chorus                                          
[ Tab from: http://www.guitartabs.cc/tabs/i/incubus/mexico_tab_ver_3.html ]
-|----------------------------------------------------------------------------
-|-------0---0-------0-0-0----------------------------------------------------
-|-0-0-0-0---0-------0-0-0-0-0---0-0-0-0-0-0-0-7-7-7-7---5-5-5-5-5-5-5--------
-|-2-0-0-0-0-0-0-------4-4-0-0---0-0-0-0-0-0-0-7-7-7-7---5-5-5-5-5-5-5--------
-|-0-0-0---0-0-0---2---------x---x-x-x-x-x-x-x-5-5-5-5-0-3-3-3-3-3-3-3--------
-|-----------0-0-0-----------3---3-3-3-3-3-3-3-5-5-5-5-0-3-3-3-3-3-3-3--------
                                                         then repeat          

-|----------------------------------------------------------------------------
-|----------------------------------------------------------------------------
-|-0---0-0-0-0-2---2-2-2-2-2-2-2-----------0---0-0-0-0-0-0-0------------------
-|-0---0-0-0-0-1---1-1-1-1-1-1-1-4-4-4-4-4-x---x-x-x-x-x-x-x------------------
-|-x---x-x-x-x-2---2-2-2-2-2-2-2-2-2-2-2-2-3---3-3-3-3-3-3-3------------------
-|-3---3-3-3-3-------------------0-0-0-0-0-3---3-3-3-3-3-3-3------------------
 breakdown                                                                    

-|----------------------------------------------------------------------------
-|----------------------------------------------------------------------------
-|-------------------------0-0-0-0-0-0-0-0-0-0-0------------------------------
-|-5-5-5-5-5-5-5-5-5-5-5-5-3-3-3-3-3-3-3-3-3-3-3------------------------------
-|-4-4-4-4-4-4-4-4-4-4-4-4-3-3-3-3-3-3-3-3-3-3-3------------------------------
-|-5-5-5-5-5-5-5-5-5-5-5-5-1-1-1-1-1-1-1-1-1-1-1------------------------------
                                                 play intro after this        

-|-----0-----0-0-----0-----0--------------------------------------------------
-|-----x-----0-0-----x-----0--------------------------------------------------
-|-----2-----2-2-----2-----2--------------------------------------------------
-|-------------------------3--------------------------------------------------
-|---3-----3-------3-------3--------------------------------------------------
-|-1-----1-------1-----1---1--------------------------------------------------
 outro                     strum end chord(Fmaj7add#4)                        

Comments