Incubus - Mexico Chords & Tabs

 

Mexico Chords & Tabs

Incubus Chords & Tabs

Version: 16 Type: Tab 0 ratings
1 star 2 stars 3 stars 4 stars 5 stars
comments

Mexico Tab

Band: Incubus
Song: Mexico
Album: Morning View

[I didn't tab this myself or anything I kust put several pieces of other tabs
together. To me this works pretty well :) Anything to tell me: Faskalan2@gmx.de ]

verse (main riff)
e|-------------------------------------------------------------------------|
B|-----8--------8-----------------------------------------------0-------0--|
G|-----9--------9-------9---------9----------7-------7----------2-------2--|
D|---9--------9---------9---------9----------0-------0---------------------|
A|-7--------7---------7---------7----------8-------8----------3-------3----|
E|-------------------8---------8----------6-------6----------1-------1-----|
[ Tab from: http://www.guitartabs.cc/tabs/i/incubus/mexico_tab_ver_16.html ]
 chorus (riff 2)
e|----------------------------------------0-0-0-0-----------------------------------------|
B|-------------------------------0--------0-0-0-0-----------------------------------------|
G|--------0--------------------0---0------0-0-0-0--------0----------------7-7-7-7--5-5-5--|
D|------4---4-----0-0-0-0----5-------5----2-2-2-2------4---4-----0-0-0-0--7-7-7-7--5-5-5--|
A|----2-------2---5-5-5-5--3--------------0-0-0-0----2-------2---5-5-5-5--5-5-5-5--3-3-3--|
E|--0-------------3-3-3-3-----------------0-0-0-0--0-------------3-3-3-3--5-5-5-5--3-3-3--|

Bridge
e|---------------------------       --------------------|
B|---------------------------       --------------------|
G|---0-0----2-2---------5-5-- then  --------------------|
D|---0-0----1-1---4-4---5-5--       ---7-7-----3--------|
A|---5-5----2-2---3-3---3-3--       ---7-7-----3--------|
E|---3-3----------0-0---3-3--       ---5-5-----1--------|

LYRICS
You could see me reaching
So why couldn't you have met me halfway?
You could see me bleeding
And you would not put pressure on the wound

You only think about yourself
You only think about yourself
You better bend before I go
On the next train to Mexico

You could see my breathing
But you still kept your hand over my mouth
You could feel me seething
But you just turned your nose up in the air
Comments