Incubus - Mexico Chords & Tabs

 

Mexico Chords & Tabs

Incubus Chords & Tabs

Version: 15 Type: Tab 0 ratings
1 star 2 stars 3 stars 4 stars 5 stars
comments

Mexico Tab

tabbed by steven
 song title: Mexico
 by: INcubus
 Album: Morning View

this song sounds exact with a Tacoma dr38 in my opinion.

the "v" and "^" are supposed to be arrows.

InTrO...
e|---------------------|------------------|---------------------|
B|-------9---------9---|------6--------6--|---------4--------4--|
G|-------10--------10--|------5--------5--|---------3--------3--|
D|---10--------10------|---6--6-----6--6--|------4--4----4---4--|
A|8----------8---------|4---------4-------|0--2--------2--------|
E|---------------------|------------------|---------------------|

e|-----------------|    
B|------2-------2--|    
G|------1-------1--|    
D|---2--2----2--2--|  
A|0--------0-------|
E|-----------------|

you have to play the intro a couple times, then figure out when to play this.
[ Tab from: http://www.guitartabs.cc/tabs/i/incubus/mexico_tab_ver_15.html ]
e|----------------------------------------------------------|
B|--------6-6-----4---4-4-4-4-4-----------6--4--4-4-4-4-4---|
G|--------5-5-----3---3-3-3-3-3---------5----3--3-3-3-3-3---|
D|-----6--6-6-----4---4-4-4-4-4-------6------4--4-4-4-4-4---|
A|0--4----4-4--2--2---2-2-2-2-2---0-4--------2--2-2-2-2-2---|
E|----------------------------------------------------------|

play that "^" after the next riff.

this is similar to intro but not exact."v"


e|------------------------------------------------------------------------|
B|-----9--------9---------6------6------------4-------4-------2-------2-2-|
G|-----10-------10--------5------5------------3-------3-------1-------1-1-|
D|--10-------10--------6--6----6-6--6------4--4----4--4----2--2----2--2-2-|
A|8--------8--------4--------4---------0-2-------2-------0-------0--------|
E|------------------------------------------------------------------------|

outro, exactly like that "^" but different ending

e|----------------0--------------------------|
B|-----2--------2----------------------------|
G|-----1------1------------------------------|
D|--2--2----2--------------------------------|
A|0-------0----------------------------------|
E|-------------------------------------------|

it's totally correct please agree with me.
Comments