Incubus - Mexico Chords & Tabs

 

Mexico Chords & Tabs

Incubus Chords & Tabs

Version: 13 Type: Tab 0 ratings
1 star 2 stars 3 stars 4 stars 5 stars
comments

Mexico Tab

 Incubus: Mexico
 Album: Morning View
 Tabbed by Ross Baxter
 Email: themuffinmann@hotmail.com

 This tab is 100% correct as I listened to the song so much to 
listen out for every note, and I am certain it is 
perfect, but if anyone believes there are mistakes then please 
email me and tell me what you think is wrong.

 Intro is played twice, then four times through the verse.
 E|------------------------------------------------------------
 B|-------0------0------0------0-------------------------------
 G|-------0------0------0------0--------7------7------2------2-
 D|-----9------9------5------5----------0------0------0------0-
 A|---7------7------3------3----------8------8------3------3---
 E|-------------------------------5/6------6------1------1-----

 Chorus is played twice
 E|------------------------------------------------------------
 B|---------------------------------0--------------------------
 G|---------0------000000000------0---0----00000000------------
 D|-------4---4----000000000----5-------0--00000000------------
 A|-----2-------0--555555555--3------------77777777------------
 E|---0------------333333333---------------55555555------------

 E|------------------------------------------------------------
 B|---------------------------00000000--00000000---------------
 G|---------0------000000000--00000000--00000000---------------
 D|-------4---4----000000000--77777777--55555555---------------
 A|-----2-------0--555555555--55555555--33333333---------------
 E|---0------------333333333-----------------------------------
[ Tab from: http://www.guitartabs.cc/tabs/i/incubus/mexico_tab_ver_13.html ]
 Then itís the intro and verse played again, followed by the 
chorus.

 Interlude
 E|------------------------------------------------------------
 B|----------------00000000------0------00000000---------------
 G|---------0------00000000--------0----00000000---------------
 D|-----------0----77777777----4-----0--55555555---------------
 A|------5------0--66666666--2----------33333333---------------
 E|---3------------77777777------------------------------------

 E|------------------------------------------------------------
 B|----------------00000000------0------00000000---------------
 G|---------0------00000000--------0----00000000---------------
 D|-----------0----77777777----4-----0--55555555---------------
 A|------5------0--66666666--2----------33333333---------------
 E|---3------------77777777------------------------------------

 E|------------------------------------------------------------
 B|----------------00000000------0------00000000---------------
 G|---------0------00000000--------0----00000000---------------
 D|-----------0----77777777----4-----0--55555555---------------
 A|------5------0--66666666--2----------33333333---------------
 E|---3------------77777777------------------------------------

 E|------------------------------------------------------------
 B|------------------------------------------------------------
 G|------------------------------------------------------------
 D|---5555555555---0000000000----------------------------------
 A|---4444444444---3333333333----------------------------------
 E|---5555555555---1111111111----------------------------------

 Repeat chorus, then the verse for the outro.
Comments