Incubus - Megalomaniac Chords & Tabs

 

Megalomaniac Chords & Tabs

Incubus Chords & Tabs

Version: 4 Type: Tab 0 ratings
1 star 2 stars 3 stars 4 stars 5 stars
comments

Megalomaniac Tab

Megalomaniac by Incubus.

great song, can't wait to hear the rest of this album.  
hope you enjoy the tab.
e-mail me with any comments at Face_of_the_faceless@Hotmail.com

Standard tuning. 

E----------------------------------------------------------------
B----------------------------------------------------------------
G--0-0-0-0-0-0-----0-0-0-0-0-0-----0-0-0-0-0-0-----0-0-0-0-0-0---
D--5-5-5-5-5-5b--5-5-5-5-5-5-5b--5-5-5-5-5-5-5b--5-5-5-5-5-5-5b--
A----------------------------------------------------------------
E----------------------------------------------------------------



E----------------------------------------------------------------
B----------------------8-8----8-------------------------8-8----8-
G--0---0-0---0-0-------0-0----0-----0---0-0---0-0-------0-0----0-
D--3/5-5-5/8-8-8-0---8-8-8----8---0-3/5-5-5/8-8-8-0---8-8-8----8-
A------------------6---6-6--6-6---------------------6---6-6--6-6-
E----------------------------------------------------------------



E----------------------------------------------------------------
B-----------------------8-8----8-------------------------8-8----8
G---0---0-0---0-0-------0-0----0-----0---0-0---0-0-------0-0----0   X2
D-0-3/5-5-5/8-8-8-0---8-8-8----8---0-3/5-5-5/8-8-8-0---8-8-8----8
A-------------------6---6-6--6-6---------------------6---6-6--6-6
E----------------------------------------------------------------



E----------------------------------------------------------------
B-----------------------8-8----8---------------------------------
G---0---0-0---0-0-------0-0----0-----0---0-0---0-0---8-8-8--5-5-5
D-0-3/5-5-5/8-8-8-0---8-8-8----8---0-3/5-5-5/8-8-8-0-8-8-8--5-5-5
A-------------------6---6-6--6-6---------------------6-6-6--3-3-3
E-----------------------------------------------------------3-3-3



E----------------------------------------------------------------
B----------------------------------------------------------------
G---------------8-8-8---5-5-5----------------8-8-8---5-5-5-------   X2
D--5----5/8-8---8-8-8---5-5-5-0-5----5/8-8---8-8-8---5-5-5-------
A--5--0-5/8-8-0-6-6-6-0-3-3-3-0-5--0-5/8-8-0-6-6-6-0-3-3-3-------
E--3--0-3/6-6-0-------0-3-3-3---3--0-3/6-6-0-------0-3-3-3-------

   



E-------------------------|--------------------------------------
B--------6----------------|--------6------------------8----------
G--0---0------------------|----7------7----------10------10---10-
D--3/5--------------------|--5---5-------------8----8-------8----
A-------------------------|--------------------------------------
E-------------------------|--------------------------------------

           "I hear you on the radio."



E-------------------------|--------------------------------------
B-------(0)---------------|---------8-----------------6----------
G--0-----0----------------|----10------10---------7------7-------
D--53-3-3----------------|--8----8-------8-----5---5------5-----
A-------------------------|--------------------------------------
E-------------------------|--------------------------------------



E-------------------------|--------------------------------------
B--------6----------------|--------6------------------8----------
G--0---0------------------|----7------7----------10------10---10-
D--3/5--------------------|--5---5-------------8----8-------8----
A-------------------------|--------------------------------------
E-------------------------|--------------------------------------



E-------------------------|--------------------------------------
B-------(0)---------------|---------8-----------------6----------
G--0-----0---------0------|----10------10---------7------7---7---
D--53-3-3b------3--------|--8----8-------------5---5------5-----
A--------------3-----2----|--------------------------------------
E----------------------3--|--------------------------------------



E----------------------------------------------------------------
B-----------------------8-8----8---------------------------------
G---0---0-0---0-0-------0-0----0-----0---0-0---0-0---8-8-8--5-5-5
D-0-3/5-5-5/8-8-8-0---8-8-8----8---0-3/5-5-5/8-8-8-0-8-8-8--5-5-5
A-------------------6---6-6--6-6---------------------6-6-6--3-3-3
E-----------------------------------------------------------3-3-3



E----------------------------------------------------------------
B----------------------------------------------------------------
G---------------8-8-8---5-5-5----------------8-8-8---5-5-5-------   X2
D--5----5/8-8---8-8-8---5-5-5-0-5----5/8-8---8-8-8---5-5-5-------
A--5--0-5/8-8-0-6-6-6-0-3-3-3-0-5--0-5/8-8-0-6-6-6-0-3-3-3-------
E--3--0-3/6-6-0-------0-3-3-3---3--0-3/6-6-0-------0-3-3-3-------

   "Hey, Megalomaniac!"



E-------------------------|--------------------------------------
B--------6-5h6p5h6p5h6p5--|---------8-----------------6----------
G--0---0------------------|----10------10---------7------7-------
D--3/5--------------------|--8----8-------8-----5---5------5-----
A-------------------------|--------------------------------------
E-------------------------|--------------------------------------


[ Tab from: http://www.guitartabs.cc/tabs/i/incubus/megalomaniac_tab_ver_4.html ]
E-------------------------|--------------------------------------
B--------6----------------|--------6-----------------8-----------
G--0---0------------------|----7------7---------10------10---10--
D--3/5--------------------|--5---5------5-----8----8-------8-----
A-------------------------|--------------------------------------
E-------------------------|--------------------------------------



E-------------------------|--------------------------------------
B-------(0)---------------|---------8-----------------6----------
G--0-----0----------------|----10------10---------7------7---7---
D--53-3-3----------------|--8----8-------8-----5---5------5-----
A-------------------------|--------------------------------------
E-------------------------|--------------------------------------



E-------------------------|--------------------------------------
B--------6-5h6p5h6p5h6p5--|--------6-----------------8-----------
G--0---0------------------|----7------7---------10------10-------
D--3/5--------------------|--5---5------------8----8-------------
A-------------------------|--------------------------------------
E-------------------------|--------------------------------------



E-------------------------|--------------------------------------
B-------(0)---------------|---------8-----------------6----------
G--0-----0---------0------|----10------10---------7------7---7---
D--53-3-3b------3--------|--8----8-------8-----5---5------5-----
A--------------3-----2----|--------------------------------------
E----------------------3--|--------------------------------------



E----------------------------------------------------------------
B-----------------------8-8----8---------------------------------
G---0---0-0---0-0-------0-0----0-----0---0-0---0-0---8-8-8--5-5-5
D-0-3/5-5-5/8-8-8-0---8-8-8----8---0-3/5-5-5/8-8-8-0-8-8-8--5-5-5
A-------------------6---6-6--6-6---------------------6-6-6--3-3-3
E-----------------------------------------------------------3-3-3



E----------------------------------------------------------------
B----------------------------------------------------------------
G---------------8-8-8---5-5-5----------------8-8-8---5-5-5-------   X4
D--5----5/8-8---8-8-8---5-5-5-0-5----5/8-8---8-8-8---5-5-5-------
A--5--0-5/8-8-0-6-6-6-0-3-3-3-0-5--0-5/8-8-0-6-6-6-0-3-3-3-------
E--3--0-3/6-6-0-------0-3-3-3---3--0-3/6-6-0-------0-3-3-3-------





E--------10--------10--------10-------10-------------10--------10
B-----13--------13--------13----13-------13-------13--------13---
G--10--------10--------10----------10-------10-12--------12------
D----------------------------------------------------------------
A----------------------------------------------------------------
E----------------------------------------------------------------



E--------10-------10-------------10-------10-------10-------10---
B-----13----13-------13-------13-------13-------13----13-------13
G--12----------12-------12-10-------10-------10----------10------
D----------------------------------------------------------------
A----------------------------------------------------------------
E----------------------------------------------------------------



E-----------10-------10-------10-------10------------------------
B--------13-------13-------13----13-------13---------------------
G--10-12-------12-------12----------12---------------------------
D----------------------------------------------------------------
A----------------------------------------------------------------
E----------------------------------------------------------------



E----------------------------------------------------------------
B----------------------------------------------------------------
G--12-12-10-12--12-10-12--12-12-10-12-14-12-10-------------------   X8
D--10-10-10-10--10-10-10--10-10-10-10-10-10-10-------------------
A----------------------------------------------------------------
E----------------------------------------------------------------




E----------------------------------------------------------------
B----------------------------------------------------------------
G--00000000000000000000000000000000------------------------------
D--55555555555555555555555555555555------------------------------
A----------------------------------------------------------------
E----------------------------------------------------------------





E----------------------------------------------------------------
B----------------------------------------------------------------
G---------------8-8-8---5-5-5----------------8-8-8---5-5-5-------   X3
D--5----5/8-8---8-8-8---5-5-5-0-5----5/8-8---8-8-8---5-5-5-------
A--5--0-5/8-8-0-6-6-6-0-3-3-3-0-5--0-5/8-8-0-6-6-6-0-3-3-3-------
E--3--0-3/6-6-0-------0-3-3-3---3--0-3/6-6-0-------0-3-3-3-------





E----------------------------------------------------------------
B----------------------------------------------------------------
G---------------8-8-8---5-5-5----------------8-8-8---5-5-5b------
D--5----5/8-8---8-8-8---5-5-5-0-5----5/8-8---8-8-8---5-5-5b------
A--5--0-5/8-8-0-6-6-6-0-3-3-3-0-5--0-5/8-8-0-6-6-6-0-3-3-3-------
E--3--0-3/6-6-0-------0-3-3-3---3--0-3/6-6-0-------0-3-3-3-------


Comments