Incubus - Megalomaniac Chords & Tabs

 

Megalomaniac Chords & Tabs

Incubus Chords & Tabs

Version: 1 Type: Tab 1 rating
1 star 2 stars 3 stars 4 stars 5 stars
comments

Megalomaniac Tab



 Ok, this about as close as it gets for basics.  Enjoy, Jabbs
 s=slide 

E----------------------------|----------------------
B----------------------------|----------------------
G----0----0----0------0---0--|------0---0-----------
D-4s5--5s7--7s8--8----5---5--|-----5---5------------
A------------------5s6---6---|--5s6---7-------------
E----------------------------|----------------------
[ Tab from: http://www.guitartabs.cc/tabs/i/incubus/megalomaniac_tab.html ]
                   Verse
E---------------------------------------------------
B-------6---------6---------8-6---------------------
G-----7---------5---7-----8-------------------------
D-3s5---------5---------8---------------------------
A-----------3---------6-----------------------------
E---------------------------------------------------

                   Chorus
E---------------------------------------------------
B---------------------------------------------------
G-------------8--8---5-5----------------------------
D--5-5---88---8--8---5-5----------------------------
A--5-5---88---6--6---3-3----------------------------
E--3-3---66-----------------------------------------
Comments