Incubus - Megalomaniac Chords & Tabs

 

Megalomaniac Chords & Tabs

Incubus Chords & Tabs

Version: 1 Type: Bass Tab 1 rating
1 star 2 stars 3 stars 4 stars 5 stars
comments

Megalomaniac Bass Tab

   
artist: Incubus
song: Megalomaniac
album: A Crow Left of the Murder

Standard E A D G tuning.

Intro: (begin after the long guitar intro ends)
|---------------------------------|
|---------------------------------|
|-----------------6-6-6---3-3-3---|
|-3---1/3---6-6-------------------| X4

VERSE I
|-----------------------------------------------------------------|
|-----------------------------------------------------------------|
|---------------------------------3-3-1-3---------6-6-5-6---------|
|-3-3-1-3---------------------------------------------------------|

|-----------------------------------------------------------------|
|-----------------------------------------------------------------|
|---------------------------------6-6-5-6---------3-3-1-3---------|
|-3-1-1-3---------------------------------------------------------|

|-----------------------------------------------------------------|
|-----------------------------------------------------------------|
|---------------------------------3-3-1-3---------6-6-5-6---------|
|-3-3-1-3---------------------------------------------------------|

|-----------------------------------------------------------------|
|-----------------------------------------------------------------|
|---------------------------------6-6-5-6---------3-3-1-3---------|
|-3-1-1-3---------------------------------------------------1-1-1-|

|-----------------------------------------------------------------|
|-----------------------------------------------------------------|
|---------------------------------------------------------1-3/5---|
|-3-3-1-3---3-1-3---3-1-3---3-1-3---3-1-3---3-1-3---3-1-3---------|

CHORUS I
|---------------------------------|
|---------------------------------|
|-----------------6-6-6---3-3-3---|
|-3---1/3---6-6-------------------| X4

VERSE II
|-----------------------------------------------------------------|
|-----------------------------------------------------------------|
|---------------------------------6-6-5-6---------3-1-------------|
|-3-3-1-3/--------------------------------------------3-1---1-1-1-|

|-----------------------------------------------------------------|
|-----------------------------------------------------------------|
|---------------------------------3-3-1-3---------6-6-5-6---------|
|-3-3-1-3---------------------------------------------------------|

|-----------------------------------------------------------------|
|-----------------------------------------------------------------|
|---------------------------------6-6-5-6---------3-3-1-3---------|
|-3-1-1-3---------------------------------------------------1-1-1-|

|-----------------------------------------------------------------|
|-----------------------------------------------------------------|
|---------------------------------3-3-1-3---------6-6-5-6---------|
|-3-3-1-3---------------------------------------------------------|
[ Tab from: http://www.guitartabs.cc/tabs/i/incubus/megalomaniac_btab.html ]
|-----------------------------------------------------------------|
|-----------------------------------------------------------------|
|---------------------------------6-6-5-6---------3-3-1-3---------|
|-3-1-1-3---------------------------------------------------1-1-1-|

|-----------------------------------------------------------------|
|-----------------------------------------------------------------|
|---------------------------------------------------------1-3/5---|
|-3-3-1-3---3-1-3---3-1-3---3-1-3---3-1-3---3-1-3---3-1-3---------|

CHORUS II
|-----------------------------------|
|-----------------------------------|
|-----------------6-6-6---3-3-3-----|
|-3---1/3---6-6---------------------| X4

|-----------------------------------|
|-3-5-------------------------------|
|-----5-----------6-6-6---3-3-3-5---|
|-------3---6-6---------------------| X4

BRIDGE

|-----------------------------------------------------------------|
|---------------------------3---3---------------------------------|
|-3-5-5-5-5-3-0-------------------3-5-5-5-5-3-0-------------0-0-0-|
|---------------1---1-1-1-1---------------------1---1-0-0-1-------|

|-----------------------------------------------------------------|
|---------------------------3---3---------------3---3-2-2-2-0-----|
|-3-5-5-5-5-3-0-------------------3-5-5-5-5-3-0---------------3-0-|
|---------------1---1-1-1-1---------------------------------------|

|-----------------------------------------------------------------|
|---------------------------3---3---------------------------------|
|-3-5-5-5-5-3-0-------------------3-5-5-5-5-3-0-------------0-0-0-|
|---------------1---1-1-1-1---------------------1---1-0-0-1-------|

|-----------------------------------------------------------5---7-|
|---------------------------3---3---------------3---3-5-3-7---7---|
|-3-5-5-5-5-3-0-------------------3-5-5-5-5-3-0-------------------|
|---------------1---1-1-1-1---------------------------------------|

|-----------------------------------------------------------------|
|-----------------------------------------------------------------|
|-3-5-5-5-5-3-0-------------------3-5-5-5-5-3-0-------------0-0-0-|
|---------------1---1-1-1-1-1-1-1---------------1---1-0-0-1-------|

|-----------------------------------------------------------------|
|-------------5-3---3-3-3-3-3-3-3---------------------------------|
|-3-5-5-5-5-3---------------------3-5-5-5-5-3-0-------------0-0-0-|
|-----------------------------------------------1---1-0-0-1-------|

|-----------------------------------|
|-----------------------------------|
|-5-----7---7---8---8-8-8-8-8-8-----|
|-5-----7---7---8---8-8-8-8-8-8-----| X4

CHORUS III
|-----------------------------------|
|-----------------------------------|
|-----------------6-6-6---3-3-3-----|
|-3---1/3---6-6---------------------| X4

|-----------------------------------|
|-3-5-------------------------------|
|-----5-----------6-6-6---3-3-3-5---|
|-------3---6-6---------------------| X3

|-----------------------------------|
|-3-5-------------------------------|
|-----5-----------6-6-6---3---1-----|
|-------3---6-6---------------------|

This should be 100% correct!



Comments