Incubus - Make Yourself Chords & Tabs

 

Make Yourself Chords & Tabs

Incubus Chords & Tabs

Version: 7 Type: Tab 0 ratings
1 star 2 stars 3 stars 4 stars 5 stars
comments

Make Yourself Tab

Band: Incubus
Song: Make Yourself
Album: Make your self
Tuning: Dropped d (DADGBE)
By: Tim Dobson (Spadey) yet again
e-mail: CrashedTD@aol.com

intro/clean 0:00
e---------------------------------------------------|
b---------------------------------------------------|
g--4-x--------------3-x--4-x-------------3-x-3-x-4--|
d--4-x-5-5-x-5-5-x--3-x--4-x-5-5-x-5-5-x-3-x-3-x-4--|
a--2-x-5-5-x-5-5-x--1-x--2-x-5-5-x-5-5-x-1-x-1-x-2--|
d------5-5-x-5-5-x-----------5-5-x-5-5-x------------|

repeat this same thing at 0:24 with distortion

chorus/distortion 0:37, 1:08, 2:24

e-------------------------------------------------|
b-------------------------------------------------|
g-------------------------------------------------|
d--0--0--0--8-8-8-8--5-5-5-5--3-3-3h5-5-----------|
a--0--0--0--8-8-8-8--5-5-5-5--3-3-3h5-5-----------|
d--0--0--0--8-8-8-8--5-5-5-5--3-3-3h5-5-----------|
[ Tab from: http://www.guitartabs.cc/tabs/i/incubus/make_yourself_tab_ver_7.html ]
interlude thingy/clean/1:33                 fill/distortion/2:02

e-----------------------------              e----------|
b-----------------------------              b----------|
g--7-7-x--4-4-x-4-4-x-7-7-7---              g--3-3-3---|
d--4-4-x--2-2-x-2-2-x-5-5-5---              d--3-3-3---|
a-----------------------------              a--1-1-1---|
d-----------------------------              d----------|

outro/distortion/2:49

e-----------------------------|
b-----------------------------|
g--4-4---------------3-3-3-3--|
d--4-4--5-5-x-5-5-x--3-3-3-3--|
a--2-2--5-5-x-5-5-x--1-1-1-1--|
d-------5-5-x-5-5-x-----------|

order of the song:
intro/clean 4 times
intro/dist. 2 times
chorus 1 time
intro/clean 2 times
intro/dist. 2 times
chorus 4 times
interlude 9 times
fill 1 time
interlude 1 time
fill 1 time
interlude 1 time
fill 1 time
intro/dist. 2 times
chorus 4 times
outro 4 times

not bad, it's a little scrappy, but it's all correct and all. Have fun.
What would you do with out me?
Comments