Incubus - Make Yourself Chords & Tabs

 

Make Yourself Chords & Tabs

Incubus Chords & Tabs

Version: 4 Type: Tab 0 ratings
1 star 2 stars 3 stars 4 stars 5 stars
comments

Make Yourself Tab

   
Javier Garcia
javiergarcia85@hotmail.com

OK BOYS AND GIRLS ! THIS IS THE MAKE YOURSELF WHOLE ALBUM AND IS 100% CORRECT. A FEW OF 
THIS SONGS ARE RECOPILATIONS AND THE REST ARE TABS THAT I MADE...ANYWAY IS 100%CORRECT!


Privelege
Normal tuning

------------------------------------------------------------------------------
------------------------------------------------------7-7-7-7-----------------
---------6------------------------------6-------------x-x-x-x-----------------
-7-5-x-x-6-x-x-7-5-x-x-4/-5-x-x-7-5-x-x-6-x-x-7-5-x-x-4-4-4-4-----------------
-7-5-x-x-4-x-x-7-5-x-x-4/-5-x-x-7-5-x-x-4-x-x-7-5-x-x-------------------------
-5-3-x-x---x-x-5-3-x-x-2/-3-x-x-5-3-x-x---x-x-5-3-x-x-------------------------
 Intro (clean)                                                                

--------------------------------------------------------x--x-x----------------
--------------------------------------------------------x--x-x----------------
---------6------------------------------6---------------x--x-x----------------
-7-5-x-x-6-x-x-7-5-x-x-4/-5-x-x-7-5-x-x-6-x-x-7-5-x-x-x-----------------------
-7-5-x-x-4-x-x-7-5-x-x-4/-5-x-x-7-5-x-x-4-x-x-7-5-x-x-x-----------------------
-5-3-x-x---x-x-5-3-x-x-2/-3-x-x-5-3-x-x---x-x-5-3-x-x-x-----------------------
 Continued...                                                                 

------------------------------------------------------------------------------
----------------------------------------------------7-------------------------
---------6---------------------------6--------------x-------------------------
-7-5--5--6-7-7-5--x-4/-5-x-x-7-5--5--6-7-7--x-x-x-x-4-------------------------
-7-5--5--4-7-7-5--x-4/-5-x-x-7-5--5--4-7-7--x-x-x-x---------------------------
-5-3--3----5-5-3--x-2/-3-x-x-5-3--3----5-5--x-x-x-x---------------------------
 Pre-Verse (distortion)                                                       

----------------------------------------------------------|-------------------
----------------------------------------------------------|-------------------
---------6---------------------------6--------------------|-------------------
-7-5--5--6-7-7-5--x-4/-5-x-x-7-5--5--6-7-7--5-5-x--x-x-x--|-5--5-5-5----------
-7-5--5--4-7-7-5--x-4/-5-x-x-7-5--5--4-7-7--5-5-x--x-x-x--|-5--5-5-5----------
-5-3--3----5-5-3--x-2/-3-x-x-5-3--3----5-5--3-3-x--x-x-x--|-3--3-3-3----------
 Continued...                                                                 

------------------------------------------------------------------------------
------------------------------------------------------------------------------
------------------------------------------------------------------------------
------------------------------------------------------------------------------
------------------------------------------------------------------------------
-5-3---5-5-3--5--5-5-3--5-5-3--5/6--------------------------------------------
 Verse (distortion)                                                           

-9-9-9-9--9-9-9-9--9-9-9-9--9-9-9-9--9-9-9-9--9-9-9-9--9-9-9-9---x--x-x-------
-9-9-9-9--9-9-9-9--9-9-9-9--9-9-9-9--9-9-9-9--9-9-9-9--9-9-9-9---x--x-x-------
-----------------------------------------------------------------x--x-x-------
-----------------------------------------------------------------x--x-x-------
-----------------------------------------------------------------x--x-x-------
-----------------------------------------------------------------x--x-x-------
 Pre-Chorus (distortion)                                                      

-4-4-4-4----------------------------------------------------------------------
-2-2-2-2----------------------------------------------------------------------
------------------------------------------------------------------------------
------------------------------------------------------------------------------
------------------------------------------------------------------------------
------------------------------------------------------------------------------
 Alternately... (with an octave pedal, which is how Mike plays it)            

------------------------------------------------------------------------------
------------------------------------------------------------------------------
--------6-------------------7--7-7-7-7-7--5--5-5------------------------------
-7-5--5-6-7-7-5--x-4/-5-5-x-7--7-7-7-7-7--5--5-5------------------------------
-7-5--5-4-7-7-5--x-4/-5-5-x-5--5-5-5-5-5--3--3-3------------------------------
-5-3--3---5-5-3--x-2/-3-3-x-5--5-5-5-5-5--3--3-3------------------------------
 Chorus (distortion)                                                          

------------------------------------------------------------------------------
------------------------------------------------------------------------------
--------6---------------------------------------------------------------------
-7-5--5-6-7-7-5--x-4/-5-x-x--3--x-x--3--x-x--3--------------------------------
-7-5--5-4-7-7-5--x-4/-5-x-x--3--x-x--3--x-x--3--------------------------------
-5-3--3---5-5-3--x-2/-3-x-x--1--x-x--1--x-x--1--------------------------------
 Continued...

Song Progression:
Intro (1x)
Pre-Verse (2x)
Verse (4x)
Pre-Chorus (1x)
Chorus (2x)
Intro (play only first half, then end as you would if you were playing the pre-verse)
Verse (4x)
Pre-Chorus (1x)
Chorus (2x)
Pre-Chorus (1x)
Chorus (4x)

Nowhere fast
Droped D tuning 

Effects: Phaser, Delay, Distortion 

Intro: 
(with phaser) 
e:----------------------------- 
B:----------------------------- 
G:--0-0------------------------ 
D:------4-4-------------------- 
A:----------0-0-----3333/8888-- 
D:--------------0-0-3333/8888-- 

Chorus: 
(with distortion) 
e:---------------------         e:--------------------- 
B:---------------------         B:--------------------- 
G:---------------------         G:----------5555------- 
D:--0-00-00-3333/8888-- x3 then D:--0-00-00-5555-3333-- 
A:--0-00-00-3333/8888--         A:--0-00-00-3333-3333-- 
D:--0-00-00-3333/8888--         D:--0-00-00------3333-- 

Verse: 
(with phaser and delay) 

(Note: Let the notes ring, you can here it in the song)

-2-----14----5------0-----
-2-----------5------------
-2-----------5------------
--------------------------
--------------------------
--------------------------

Bridge: 
(with phaser and delay) 
fade the notes in with your volume nob (this sounds really good with  
the delay) 
e:--------------------------------------------- 
B:--------------------------------------------- 
G:--------------------------------------------- 
D:--5<<<<<<<8<<<<<<<5<<<<<<<10<<<<<<<10-10-10-- 
A:--5<<<<<<<8<<<<<<<5<<<<<<<10<<<<<<<10-10-10-- 
D:--5<<<<<<<8<<<<<<<5<<<<<<<10<<<<<<<10-10-10-- 
     *break into distortion here 


solo: (100% Correct, pure whoopass.)
----------------------9-----7---------------------------------------------
------------------7-----7-----7---------------------------------8---------
--------------------6-----7-----7----------7-----------------10---10------
-----5---5/7----------------------------7-----7---7--------10--------10---
---0---0------0----------------------5---5-----5----------8-------------8-
-0---------------------------------5---------------(5)/8------------------
                                                   
then 
e:---------------------------------------------- 
B:---------------------------------------0-0-0-- 
G:--9/11-11-14-14-11-9-7-6/7-7-6/7-7-3-3-4-4-4-- 
D:--9/11-11-14-14-11-9-7-6/7-7-6/7-7-3-3-2-2-2-- 
A:--7/9--9--12-12-9--7-5-4/5-5-4/5-5-1-1-0-0-0-- 
D:---------------------------------------------- 

then 
e:----------------------------------------------------- 
B:----------------------------------------------------- 
G:--9/11-11-14-14-11-9-7-10-10-10-10-10-10-10-10-10-10- 
D:--9/11-11-14-14-11-9-7-10-10-10-10-10-10-10-10-10-10-
A:--7/9--9--12-12-9--7-5--8--8--8--8--8--8--8--8--8--8-  
D:------------------------8--8--8--8--8--8--8--8--8--8-  

Consequence
Normal tuning

    E|----------------------------------------------------|
    B|-------------0---0--------------0------0------0-----|
    G|----------13----13------------8--------8------7-----|
    D|--------0--------0----------0----------0------0-----|
    A|-----11---------11--------6------------6------5-----|
    E|--12------------12------7--------------7------6-----|

    E|-----------------------------------------------------|
    B|-------------0---0--------------0-------0------0-----|
    G|----------13----13------------8---------8------7-----|
    D|--------0--------0----------0-----------0------0-----|
    A|-----11---------11--------6-----------6------5-------|
    E|--12------------12------7-----------7------6---------|

*****************NOTE: Use at own discrestion****************

I'll let you make the call, but a section of this at the end might
sound a little different on the last two pieces -|| (bad arrow)
					         \/
						      	
    E|-----------------------------------------------------|
    B|-------------0---0--------------0-------0------0-----|
    G|----------13----13------------8---------8------7-----|
    D|--------0--------0----------0-----------0------0-----|
    A|-----11---------11--------6-----------6------5-------|
    E|--12------------12------7-----------7------6---------|


		*It may change to this
		 on a section:		------------------|
					-----0------0-----|
					-----7------4-----|
					-----0------0-----|
					---5------2-------|
					-6------3---------|

*I don't do it but you might want to...just fyi*
***************************************************************

     CHORUS:

    E|-----------------------------------------|
    B|-----------------------------------------|
    G|--9----9----9----9-----------------------|
    D|--9----9----9----9----9----9----9-----8--|
    A|--7----7----7----7----9----9----9-----8--|
    E|--7----7----7----7----7----7----7-----6--|

    E|-----------------------------------------|
    B|-----------------------------------------|
    G|--9----9----9----9-----------------------|
    D|--9----9----9----9----9----9----8-8-5-5--|
    A|--7----7----7----7----9----9----8-8-5-5--|
    E|--7----7----7----7----7----7----6-6-3-3--|

     This part is played after the chorus a few times

    E|-------------------------|
    B|-------------------------|
    G|--9----9-9-----7---------|
    D|--9----9-9-9---7----7-6--|
    A|--7----7-7-9---5----7-6--|
    E|--7----7-7-7---5----5-4--|

     INTERLUDE:

    E|-------------------------------------------------|
    B|-------------------------------------------------|
    G|-------------------------------------------------|
    D|--9-9---9-9---9-9---9-9---8-8---8-8---8-8---8-8--|
    A|--9-9---9-9---9-9---9-9---8-8---8-8---8-8---8-8--|
    E|--7-7---7-7---7-7---7-7---6-6---6-6---6-6---6-6--|

     SOLO:

    E|------------------|
    B|------------------|
    G|--6----6-6--------|
    D|--6----6-6-6---7--|
    A|--4----4-4-6---7--|
    E|--4----4-4-4---5--|

The Warmth
Normal tuning
Verse 
~~~~~ 
|-----------------------------19----| 
|--19^--17----17--------------------| 
|----------19----19---17--16-----16-| 
|-----------------------------------| 
|-----------------------------------| 
|-----------------------------------| 
1/4  - 
 
Chorus 
~~~~~~ 
|--12--12-12-12-12-12-8--8-8-8-8-8-3--3-3-3-3-3-3--0-3-0--0-0-0-0-| 
|--12--12-12-12-12-12-8--8-8-8-8-8-3--3-3-3-3-3-3--0-3-0--0-0-0-0-| 
|-----------------------------------------------------------------| 
|-----------------------------------------------------------------| 
|-----------------------------------------------------------------| 
|-----------------------------------------------------------------| 
 
Bridge 
~~~~~~ 
|----------------------------------| 
|----------------------------------| 
|----------------------------------| 
|--9-7-9-7-9-7-7-9-9-7-9-7-9-7-7-7-| 
|----------------------------------| 
|----------------------------------| 
 
Last Chorus 
~~~~~~~~~~~ 
|------------------------------------------------------------| 
|------------------------------------------------------------| 
|--9--9-9-9-9-9-9-x-x-7--7-7-7-x-----------------------------| 
|--9--9-9-9-9-9-9-x-x-7--7-7-7-x-5--5-5-5-5-5-5-x-x-2--2-2-2-| 
|--7--7-7-7-7-7-7-x-x-5--5-5-5-x-5--5-5-5-5-5-5-x-x-2--2-2-2-| 
|--------------------------------3--3-3-3-3-3-3-x-x-0--0-0-0-| 
 
 After repeating the above 2x, 
 Gtr 2 comes in with this: 
|-------------------------7---| 
|--7^--5---5------------------| 
|--------7---7---5--4---4---4-| 
|-----------------------------| 
|-----------------------------| 
|-----------------------------| 
1/4 –

When it comes
Normal tuning

---------------------------------------  
--------------------------------------- play first 2 times palm muted 
--------------------------------------- then play 2 times as written 
--------------------------------------- 
--------------------------------------- 
-2-2-2-2-2h3p2-2-2--2--2-2222-5-5-3-3-- 
Interlude 
--------- 
--------- play 8x 
--------- 
--------- 
-7--5-4-- 
-5--3-2-- 
                                                                               
Verse 
---------------0--------------0--0-- 
---------------0--------------0--0-- play 4x 
---------------4--------------2--2-- 
---------------2--------------2--2-- 
-7\6-5--5-5-5--0----7-6-5-5-5-0--0-- 
------------------------------------ 
 * * *  * * *       * * * * *                                                    
           
Pre-Chorus 
-------------------- 
-------------------- play 6x 
-------------------- 
-------9-9-6-6------ 
-7-7-7-7-7-4-4-7-7-- 
-5-5-5---------5-5-- 
                                                                               
Chorus 
-------------------- 
-------------------- play 6x 
-------------------- 
---------9///////6-- 
-7///////7///////4-- 
-5///////----------- 

Interlude 4x 
Verse 4x 
Pre-Chorus 6x 
Chorus 6x 
                                                                               
Outro pt.1 
----------------------------------------------------- 
----------------------------------------------------- play 1x 
----------------------------------------------------- 
----------------------------------------------------- 
----------------------------------------------------- 
-2-2-2-2-2h3p2-2-2--2--2-2222-55-33-2-2-2-2-2-2-2-2-- 
                         ^________________________^-Octave Pedal                 
             Outro pt.2 
------------------------ 
------------------------ play 8x 
------------------------ 
------------------------ 
-7--5-4-4--5-4-5-4-5-7-- 
-5--3-2-2--3-2-3-2-3-5--

Stellar
Normal tuning
--------------------------------------------------------------------------|---
------------------------------------------------------------------------*-|---
-------9/11-b11-b6-----------------------9/11-b11-b6----------------------|---
-----9-9/11-b11-b6-6-----6-6---6-7-----9-9/11-b11-b6--6-----6-6-----6-----|---
-0-------------------4-4-4---5------0-------------------4-4-4---7-7-----*-|---
--------------------------------------------------------------------------|---
               with heavy distortion and octaver                              

------------------------------------------------------------------------------
------------------------------------------------------------------------------
-7--7-7--7-7-7-7--7--7--7-7-7--4--4---4-4-4-4--4-4--4-4-4-4-------------------
-7--7-7--7-7-7-7--7--7--7-7-7--4--4---4-4-4-4--4-4--4-4-4-4-----7-------------
-5--5-5--5-5-5-5--5--5--5-5-5--2--2---2-2-2-2--2-2--2-2-2-2-----7-------------
----------------------------------------------------------------5-------------
                                                                              

------------------------------------------------------------------------------
------------------------------------------------------------------------------
------------------------------------------------------------------------------
-7--7--7--7--------6-6-----6--7--7--7--7----6-6---6-7---7--7--7--7-------6-6--
-7--7--7--7---4--4-----7-7----7--7--7--7--4-----5-------7--7--7--7--4--4------
-5--5--5--5-------------------5--5--5--5----------------5--5--5--5------------
                                       Now Back to clean tone                 

--------------------------------------|-------------------------------------|-
--------------------------------------|*-----------------------------------*|-
--------------------------------------|----9-9/11-11-----9-9/6--6--------9--|-
------6--7--7--7--7--7------6-6---6-7-|----9-9/11-11-----9-9/6--6--------9--|-
-7-7-----7--7--7--7--7--4-4-----5-----|*-0------------0--------------0-----*|-
---------5--5--5--5--5----------------|-------------------------------------|-
                                                                              

------------------------------------------------------------------------------
------------------------------------------------------------------------------
-9/11-b11--b6-----------------9--9/11-b11-b6----------------------------------
-9/11-b11--b6-----6-6---6-7---9--9-11-b11-b6--6-----6-6-----6-----------------
--------------4-4-4---5-----0-------------------4-4-4---7-7-------------------
------------------------------------------------------------------------------
  Interlude clean tone   

-------------------------------------------------------------------------0--|-
-------------------------------------------------------------------------0-*|-
-------------------------------------------------------------------------4--|-
-----0--0----------0--0-----------0--0-------2-2---------2-2---------7---7--|-
---7------7------7------7-------5----5-----2-----2-----2-----2-----5---5---*|-
-5----------5--5----------5\3-3------3---0---------0-0---------0-3----------|-
             heavy distortion and octaver                                     

-----------|------------------------------------------------------------------
-----------|------------------------------------------------------------------
-----------|------------------------------------------------------------------
-----7---5-|---------------------------7--------------------------------------
---5---5-5-|-5-5--5-5-5-5-5-5-5-5------7--------------------------------------
-3-------3-|-3-3--3-3-3-3-3-3-3-3------5--------------------------------------
 

I didn't tab this part right here 

----------------------------|------------------------------------------------
-----------------------------|------------------------------------------------
---------6-6---------------*-|-6------7---------------------------------------
-7-7-7-7-6-6-6-6-2-2-6--7----|-6-6-6--7-6-7---7-------------------------------
-7-7-7-7-4-4-6-6-2-2-6--7--*-|-4-6-6--5-6-7---7-------------------------------
-5-5-5-5-----4-4-0-0-4--5----|---4-4----4-5---5-------------------------------



       It ends like this distortion and octaver

------------------------------------------------------------------------------
------------------------------------------------------------------------------
------------------------------------------------------------------------------
---6-6---6-7------6-6---6-7--------9------------------------------------------
-4-----5------4-4-----5------------7------------------------------------------
-----------------------------------5------------------------------------------

Make yourself
Normal tuning

E |-------------------|  E |---------------------|
B |-------------------|  B |---------------------|
G |-------------------|  G |---------------------|
D |--9-xx5-xx5-55-88--|  D |--9-xx5-xx5-55-8888--|
A |--9-xx5-xx5-55-88--|  A |--9-xx5-xx5-55-8888--|
E |--7-xx3-xx3-33-66--|  E |--7-xx3-xx3-33-6666--|



Interlude_1_

With distortion
E |---------------------------------|
B |---------------------------------|
G |--7-7-7-7-77---------------------|
D |--7-7-7-7-77--888-8-555-5-555-5--|
A |--5-5-5-5-55--888-8-555-5-555-5--|
E |--------------666-6-333-3-333-3--|



Chorus_
The chorus is played with distortion.

E |---------------------------------
B |---------------------------------
G |--7-7-7-7-77---------------------
D |--7-7-7-7-77--888-8-555-5-555-5--
A |--5-5-5-5-55--888-8-555-5-555-5--
E |--------------666-6-333-3-333-3--

E |---------------------------------|
B |---------------------------------|
G |--7-7-7-7-77---------------------|
D |--7-7-7-7-77--888-8-5-5-5-333-3--|
A |--5-5-5-5-55--888-8-5-5-5-333-3--|
E |--------------666-6-3-3-3-111-1--|


[ Tab from: http://www.guitartabs.cc/tabs/i/incubus/make_yourself_tab_ver_4.html ]
Bridge_
The bridge is played with a very light crunch, almost clean. Then on the last part of the 
second riff kick in the distortion.

1_              2_
E |-------------|----------------|
B |-------------|----------------|
G |-------------|----------------|
D |--7-9---5-5--|--7-9---55-5-5--|
A |--9-7---7-x--|--9-7---7x-x-x--|
E |----------6--|---------6-6-6--|



Then everything stops and Brandon says,  
I’LL *** ME IN MY OWN WAY



Interlude_2_
Played with distortion.

E |--------------------|  
B |--------------------| 
G |--------------------|
D |--9-xx5-xx5-55-8-8--| 
A |--9-xx5-xx5-55-8-8--|  
E |--7-xx3-xx3-33-6-6--| 



Last Chorus_
The chorus is played with Distortion.

E |---------------------------------
B |---------------------------------
G |--7-7-7-7-77---------------------
D |--7-7-7-7-77--888-8-555-5-555-5--
A |--5-5-5-5-55--888-8-555-5-555-5--
E |--------------666-6-333-3-333-3--

E |---------------------------------
B |---------------------------------
G |--7-7-7-7-77---------------------
D |--7-7-7-7-77--888-8-5-5-5-333-3--
A |--5-5-5-5-55--888-8-5-5-5-333-3--
E |--------------666-6-3-3-3-111-1--

E |---------------------------------
B |---------------------------------
G |--7-7-7-7-77--------------777-7--
D |--7-7-7-7-77--888-8-5-5-5-777-7--
A |--5-5-5-5-55--888-8-5-5-5-555-5--
E |--------------666-6-3-3-3--------

E |---------------------------------|
B |---------------------------------|
G |--7-7-7-7-77---------------------|
D |--7-7-7-7-77--888-8-5-5-5-333-3--|
A |--5-5-5-5-55--888-8-5-5-5-333-3--|
E |--------------666-6-3-3-3-111-1--|



Outro_
Is played with distortion.

E |---------------------|  
B |---------------------| 
G |---------------------|
D |--9-xx5-xx5-55-8888--| 
A |--9-xx5-xx5-55-8888--|  
E |--7-xx3-xx3-33-6666--| 



Order_

Intro (crunch) x8
Verse (crunch) x4
Interlude_1 x1
Verse (crunch) x4
Verse (distortion) x4
Chorus x2
Bridge_1 x9
Bridge_2 x3
Pause
Interlude_2 x4
Last Chorus x1
Outro x4

Drive
Normal tuning
Intro/Verse/chorus
-----0-0----------------------------------------------------------------------
-----8-8-x---7-7-----5-5-x---5-5-5--------------------------------------------
-----0-0-x---7-7-----4-4-x---0-0-0--------------------------------------------
-----9-9-x---5-5---5-5-5-x---5-5-5--------------------------------------------
---7-7-7---7-7-7-3-----------3-3-3--------------------------------------------
-0-------------------------5-5-5-5--------------------------------------------
                                                                              
Prechorus
-----------------0-0---0-0-0-0---0-0-0-0---0-0--------------------------------
-----5-5-----5-5-2-2---2-2-2-2p0-0-0-0-2p0-0-0--------------------------------
-----4-4-----4-4-0-0---0-0-0-0---0-0-0-0---0-0--------------------------------
---5-5-5-----5-5-2-2---2-2-2-2---------2--------------------------------------
-3---3-3-3-3-----0-0-0-0-0-0-0---------0--------------------------------------
------------------------------------------------------------------------------
                                                                              
Guitar Solo
-0---0-0-0---7-5\3-3-3-5-----------------------3-5-5/7-7-5-10\7-7-7-5-7-------
-3/5-5-5-5-7-------------3-5-3/5\3-5-3/5-5-3/5--------------------------------
------------------------------------------------------------------------------
------------------------------------------------------------------------------
------------------------------------------------------------------------------
------------------------------------------------------------------------------
                                                                              

-7\5-------------0-5-3h5-5-3-3------------------------------------------------
-5\3-3-5-3h5-3-0-3-------------5-3h5-3----------------------------------------
-----------------4---------------------4-2-2/4--------------------------------
------------------------------------------------------------------------------
------------------------------------------------------------------------------
------------------------------------------------------------------------------

Clean
Normal tuning
--------------|---------------------------------------------------------------
--------------|---------------------------------------------------------------
--------------|---------------------------------------------------------------
--------------|---------------------------------------------------------------
--------------|---------------------------------------------------------------
-5-7-7--5-7-7-|---------------------------------------------------------------
 riff 1                                                                       

----------------------------------------|-------------------------------------
-----------------------<5&6>-<5&6>-<5&6>|-------------------------------------
----------------------------------------|-------------------------------------
---------------x-x-x-x------------------|-------------------------------------
-7-9-9--7-9-9--x-x-x-x------------------|-------------------------------------
-5-7-7--5-7-7--x-x-x-x------------------|-------------------------------------
 riff 2 (palm muted)                                                          
                      (to do the high pitched thingy, put your ring finger
                       lightly between the 5th and 6th fret for the correct
                       harmonics. another option to do harmonics on the 7th
                       fret of the e-string.)


----------------------------------------|-------------------------------------
-----------------------<5&6>-<5&6-<5&6>-|-------------------------------------
----------------------------------------|-------------------------------------
-7-9-9--7-9-9--x-x-x-x------------------|-------------------------------------
-7-9-9--7-9-9--x-x-x-x------------------|-------------------------------------
-5-7-7--5-7-7--x-x-x-x------------------|-------------------------------------
 riff 3                                                                       

---------------------------------|--------------------------------------------
---------------7-7-7-7-7-7-7-7-7-|--------------------------------------------
---------------9-9-9-9-9-9-9-9-9-|--------------------------------------------
-7-9-9--7-9-9--------------------|--------------------------------------------
-7-9-9--7-9-9--------------------|--------------------------------------------
-5-7-7--5-7-7--------------------|--------------------------------------------
 riff 4                                                                       

----------------------------|-------------------------------------------------
----------------------------|-------------------------------------------------
----------------------------|-------------------------------------------------
-7-9-9--7-9-9--7-9-9--7-9-9-|-------------------------------------------------
-7-9-9--7-9-9--7-9-9--7-9-9-|-------------------------------------------------
-5-7-7--5-7-7--5-7-7--5-7-7-|-------------------------------------------------
 end of riff 4                                                                

-------------------------------------7-----7---------7-----7----------------|-
-------------------------------------10------10------10------10------7-7-7-7|-
-6--------6-------6---------6--------8----------8----8----------8----9-9-9-9|-
-4----------4-----4-----------4------9---------------9----------------------|-
-5------------5---5-------------5-------------------------------------------|-
----------------------------------------------------------------------------|-
 verse                                                                        

----------------------------------------------------------|-------------------
----------------------------------------------------------|-------------------
---------7---------------------7--------------------------|-------------------
-7-9-9---7--7-7-7---7--7-9-9---7-x-x-x--7-9-9-9-9-7-7-7-7-|-------------------
-7-9-9-x-5--7-7-7-x-5--7-9-9-x-5-x-x-x--7-9-9-9-9-7-7-7-7-|-------------------
-5-7-7-x-5--5-5-5-x-3--5-7-7-x-5-x-x-x--5-7-7-7-7-5-5-5-5-|-------------------
 chorus                                                     repeat            

----------------------------------------------------------------------|-------
----------------------------------------------------------------------|-------
----------------------------------------------------------------------|-------
----------------------------------------------------------------------|-------
-3-3-3-3-3-3-1-1-1-1-3-3-3-3-3-3-1-1-1-1------------------------------|-------
-----------------------------------------4-4-4-4-3-3-3-3-3-1-1-1-1-1-1|-------
 middle part 1                                                                



----------------------------------------------------------------------|-------
----------------------------------------------------------------------|-------
----------------------------------------------------------------------|-------
-5-5-5-5-5-5-3-3-3-3-5-5-5-5-5-5-3-3-3-3------------------------------|-------
-3-3-3-3-3-3-1-1-1-1-3-3-3-3-3-3-1-1-1-1-6-6-6-6-5-5-5-5-5-3-3-3-3-3-3|-------
-----------------------------------------4-4-4-4-3-3-3-3-3-1-1-1-1-1-1|-------
 middle part 2 (end this riff by jumping back to A# before you start #3)

----------------------------------------------------------------------|-------
----------------------------------------------------------------------|-------
----------------------------------------------------------------------|-------
-5-5-5-5-5-5-3-3-3-3-5-5-5-5-5-5-3-3-3-3------------------------------|-------
-3-3-3-3-3-3-1-1-1-1-3-3-3-3-3-3-1-1-1-1-6-6-6-6-5-5-5-5-5-3-3-3-3-3-3|-------
-----------------------------------------4-4-4-4-3-3-3-3-3-1-1-1-1-1-1|-------
 middle part 3                                             |----PM---|

Battlestar Scralatchtica
Normal tuning

wah-wah pedal 

e-5—5--4/5—8-5-----5---5----5--------------5-----5------
b-6—6--5/6—9-6-----6-5-6----6-----3-1-3p1—6-5p3-6---5---
g--------------------------5b---5p3--------------------3
d-------------------------------------------------------
a-------------------------------------------------------
e-------------------------------------------------------


bridge 1

e-----------------------------5-
b-----------------------------3-
g---0-2-3-5-6-7---8p7p5 2-----2-
d-------------------------5-----
a-------------------------------                           
e-3-----------------------------


Riff 2
bend the first note gradually, and then play the last note right before
the second bridge
e-----6----
b-5b-------
g----------
d----------
a----------
e----------

bridge 2
e---------------------------------------10-                       
b----------------------------------------9-
g—15-12—7-8—12-12-9------------------------
d----------------------10-9-7-9-7----------
a---------------------------------10-8-----
e------------------------------------------

Riff 3

guitar starts in really far into the riff


e-66-66----------------
b-------5-5------------
g-----------3-5------5-
d----------------------
a----------------------

bridge 3
e--------------------------------------------------
b--------------------------------------------------
g-7---7-------------3--------------------------1-5-
d---6--------------------------------------2-3-----
a-------7-6-5-3-2-1----------3-1-3-------3---------
e----------------------3p2p1-------0-1-3-----------

RIff 4 
e-6-8p6--15-12-12--18-18p15-18-18p15-17-18p17-13-13/18-18-18-18-18-18-18-
b--------15----11--------------------------------------------------15----
g------------------------------------------------------------------------
d------------------------------------------------------------------------
a------------------------------------------------------------------------
e------------------------------------------------------------------------
 
e----------------5—4-5-   
b-18-18-x-18-18--6-5-6-   
g-19-19-x-19-19--------    
d----------------------
a----------------------
e----------------------
e----------------------
I miss you
Drop d tuning
 
Main Riff (verse): 
                         Harmonic 
e|---------------------------------| 
B|---------------------------------| 
G|----------------------(7)--------| 
D|-----0-----------0---0-----------| 
A|---4---4---4---4---4-------------| 
D|-0-------0---5-------------------| 


Pre-Chorus 
   Bm        G             Dsus4(add2) 
e|-------------------------0-----------| 
B|-------0---------0-------5-----------| 
G|-----4---------0---0-----0-----------| 
D|---0---------0-------0---4-----------| 
A|-2-----------------------5-----------| 
D|-----------5-------------0-----------| 

   Bm        G             Dsus4(add2) 
e|----------------------------10-10-10--| 
B|-------0---------0--------------------| 
G|-----4---------0---0-----0---7-----7--| 
D|---0---------0-------0---4------7-----| 
A|-2-----------------------5------------| 
D|-----------5-------------0------------| 

   




Bm        G             Dsus4(add2) 
e|-------------------------------------| 
B|-------0---------0-------------------| 
G|-----4---------0---0-----------------| 
D|---0---------0-------0---0-----------| 
A|-2-----------------------0-----------| 
D|-----------5-------------0-----------| 

   Bm    G 
e|--------------|
B|-0-----0--0---|
G|-4-----0--0---| 
D|-0-----5--4---| 
A|-2------------| 
D|-------5--5---|

Pardon me
Normal tuning


    E|--0------0------0------0---0--| 
    B|--0------0------0------0---0--| 
    G|--4------4------4------4---4--| 
    D|--2------2------2------2---2--| 
    A|--4------0------4------0------| 
    E|------------------------------| 
 
     INTRO PART B: 
 
    E|--4--4-4-4--4-4-0-0-0-0-0--0-0--| 
    B|--4--4-4-4--4-4-0-0-0-0-0--0-0--| 
    G|--6--6-6-6--6-6-2-2-2-2-2--2-2--| 
    D|--6--6-6-6--6-6-2-2-2-2-2--2-2--| 
    A|--4--4-4-4--4-4-0-0-0-0-0--0-0--| 
    E|--------------------------------| 
 
    E|--4--4-4-4--4-4-0-0-0-0-0--0-0--| 
    B|--4--4-4-4--4-4-0-0-0-0-0--0-0--| 
    G|--6--6-6-6--6-6-2-2-2-2-4--4-4--| 
    D|--6--6-6-6--6-6-2-2-2-2-2--2-2--| 
    A|--4--4-4-4--4-4-0-0-0-0-2--2-2--| 
    E|------------------------0--0-0--| 
 
    E|--4--4-4-4--4-4-0-0-0-0-0--0-0--| 
    B|--4--4-4-4--4-4-0-0-0-0-0--0-0--| 
    G|--6--6-6-6--6-6-2-2-2-2-2--2-2--| 
    D|--6--6-6-6--6-6-2-2-2-2-2--2-2--| 
    A|--4--4-4-4--4-4-0-0-0-0-0--0-0--| 
    E|--------------------------------| 
 
    E|--4--4-4-4-4/7-7-7-7------------| 
    B|--4--4-4-4-4/7-7-7-7------------| 
    G|--6--6-6-6-6/9-9-9-9------------| 
    D|--6--6-6-6-6/9-9-9-9-9-9-9-7-7--| 
    A|--4--4-4-4-4/7-7-7-7-9-9-9-7-7--| 
    E|---------------------7-7-7-5-5--| 
 
     VERSE: 
 
     Not much guitar
 PRE-CHORUS: 
 
    E|--0------------------------------------------| 
    B|--0------------------------------------------| 
    G|--2-- hit this chord a whole bunch of times--| 
    D|--2------------------------------------------| 
    A|--0------------------------------------------| 
    E|---------------------------------------------| 
 
     CHORUS: 
 
    E|--4-4-4--4-4-4-4-------------0-0--0-0--0-0--------------------| 
    B|--4-4-4--4-4-4-4-------2-2---0-0--0-0--0-0--------------------| 
    G|--6-6-6--6-6-6-6-4-4-4-4-4-2-2-2--2-2--2-2--------------------| 
    D|--6-6-6--6-6-6-6-2-4-4-4-4-2-2-2--2-2--2-2-2-4-2-2-2-4-2-2-2--| 
    A|--4-4-4--4-4-4-4-2-2-2-2-2-0-0-0--0-0--0-0-2-4-2-2-2-4-2-2-2--| 
    E|-------------------------------------------0-2-0-0-0-2-0-0-0--| 
 
    E|--4-4-4--4-4-4-4-------------0-0--0-0--0-0--------------------| 
    B|--4-4-4--4-4-4-4-------2-2---0-0--0-0--0-0--------------------| 
    G|--6-6-6--6-6-6-6-4-4-4-4-4-2-2-2--2-2--2-2--------------------| 
    D|--6-6-6--6-6-6-6-2-4-4-4-4-2-2-2--2-2--2-2-2-4-2-2-2-4-2-2-2--| 
    A|--4-4-4--4-4-4-4-2-2-2-2-2-0-0-0--0-0--0-0-2-4-2-2-2-4-2-2-2--| 
    E|-------------------------------------------0-2-0-0-0-2-0-0-0--| 
 
    E|--4-4-4--4-4-4-4-0-0-0-0--------------------------0-0-0-0-0-0--| 
    B|--4-4-4--4-4-4-4-0-0-0-0--------------------0-0-0-0-0-0-0-0-0--| 
    G|--6-6-6--6-6-6-6-2-2-2-2-/4-4-4-4--4-4-4-4--4-4-4-4-4-4-4-4-4--| 
    D|--6-6-6--6-6-6-6-2-2-2-2-/4-4-4-4--4-4-4-4--4-4-4-4-4-4-4-4-4--| 
    A|--4-4-4--4-4-4-4-0-0-0-0-/2-2-2-2--2-2-2-2--2-2-2-2-2-2-2-2-2--| 
    E|-------------------------/2-2-2-2--2-2-2-2--2-2-2-2-2-2-2-2-2--| 
 
    E|--4-4-4--4-4-4-4-0-0-0-0---------------------------------------| 
    B|--4-4-4--4-4-4-4-0-0-0-0---------------------------------------| 
    G|--6-6-6--6-6-6-6-2-2-2-2-/4-4-4-4--4-4-4-4---------------------| 
    D|--6-6-6--6-6-6-6-2-2-2-2-/4-4-4-4--4-4-4-4--2-4-2-2-2-4-2-2-2--| 
    A|--4-4-4--4-4-4-4-0-0-0-0-/2-2-2-2--2-2-2-2--2-4-2-2-2-4-2-2-2--| 
    E|-------------------------/2-2-2-2--2-2-2-2--0-2-0-0-0-2-0-0-0--|

out from under
normal tuning
------------------------------------------------------------------- 
------------------------------------------------------------------- 
------------------------------------------------------------------- 
-2-2-2-5-5-5-5-5-2-2-2-5-5-5-5-5--5-5-x-5-5------------------------ 
-2-2-2-3-3-3-3-3-2-2-2-3-3-3-3-3--3-3-x-3-3-x-5-5-x-5-5------------ 
-0-0-0-----------0-0-0----------------x-----x-3-3-x-3-3------------ 
 
 ----------------------------------------------------------------------- 
----------------------------------------------------------------------- 
----------------------------------------------------------------------- 
-2-2-2-5-5-5-5-5-2-2-2-5-5-5-5-5-4444-2222----------------------------- 
-2-2-2-3-3-3-3-3-2-2-2-3-3-3-3-3-2222-0000-5555-3333------------------- 
-0-0-0-----------0-0-0---------------------3333-1111------------------- 
 
Verse 
----------------------------------------------------------------------- 
----------------------------------------------------------------13----- 
-7h9-9-9------------------0---------------7h9-9-9---------------15^---- 
----------------------------------------------------------------------- 
----------------------------------------------------------------------- 
----------------------------------------------------------------------- 
                  ......anyone.....                        ..because... 
 
----------------------------------------------------------------------- 
-----------------------------------------------------------------0----- 
-7h9-9-9------------------0---------------7h9-9-9----------------0----- 
----------------------------------------------------------------------- 
----------------------------------------------------------------------- 
----------------------------------------------------------------------- 
                 ......anyone......                    .....yes our... 
 
Chorus 
----------------------------------------------------------------------- 
----------------------------------------------------------------------- 
-----------------x-x--------------------------------------------------- 
-----------------x-x---x----------------------------------------------- 
-----12-12-8-8-7-x-x---x--12-12-8-8-7-7--2-3-22-3-2-/10101010-888------ 
--0--10-10-6-6-5-----<10>-10-10-6-6-5-5--0-1-00-1-0-/-8-8-8-8-666------ 
 
Bridge with various noises then this with a crescendo 
-------------------------------- 
-------------------------------- 
-7h97h97h97h97h97h97h97h97h97h9-repeat few times 
-------------------------------- 
-------------------------------- 
-------------------------------- 
 
Fill                       Ending 
-------------------------|--------------------------------------------- 
-------------------------|--------------------------------------------- 
-------------------------|--------------------------------------------- 
-------------------------|-2222555522225555222255552222----22225555---- 
--2332-323--10101010888--|-2222333322223333222233332222555522223333---- 
--0110-101-/-8-8-8-8666--|-0000----0000----0000----000033330000-------- 
 
----------------------------------------------------------------------- 
----------------------------------------------------------------------- 
----------------------------------------------------------------------- 
-2222555544442222------------------------------------------------------ 
-222233332222000055553333---------------------------------------------- 
-0000------------33331111---------------------------------------------- 
 
Intro  1x 
verse  1x 
chorus 4x 
verse  1x 
chorus 4x 
bridge 
intro  1x 
fill   1x 
chorus 4x 
ending 1x
Comments