Incubus - Make Yourself Chords & Tabs

 

Make Yourself Chords & Tabs

Incubus Chords & Tabs

Version: 2 Type: Bass Tab 0 ratings
1 star 2 stars 3 stars 4 stars 5 stars
comments

Make Yourself Bass Tab

   
band:Incubus
cd:Make Yourself
song:make yourself
tab:bass
tabbed by:K.Sedgwick(Awethinkweizm 5@aol.com
------------------------------------------------------------------------------
----------------------------------------------
Db,Gb,B,E

Gb[------------4-4-4-5-----------------------4-4-4-4-4-5-]
Db[-6-6--6-6-------------------6-6----6-6------------------]
[ Tab from: http://www.guitartabs.cc/tabs/i/incubus/make_yourself_btab_ver_2.html ]
Gb[--------------4-4-4-4\---------------------]
Db[-1--1-1-1/--------------6-6-6----6-6-6-]
--^first  time^--

chorus
Gb[---------------4-4-4---4-4\---------------------]
Db[-1---1-1-1/-------------------6-6-6---6-6-6--]

Gb[---------------4-4-4---4-4-\----------------------------------------]
Db[-1--1-1-1/--------------------6-6-6------6-6-6\4-4-4/6-6-6--]

Gb[---------------------4-4-4---4-4-\-----------------6-6---6-6-6-6]
Db[-1---1-1-1--1-1/------------------6-6-6---6-6/-------------------]

then play riff a agin

Comments