Incubus - Make Yourself Acoustic Chords & Tabs

 

Make Yourself Acoustic Chords & Tabs

Incubus Chords & Tabs

Version: 2 Type: Tab 0 ratings
1 star 2 stars 3 stars 4 stars 5 stars
comments

Make Yourself Acoustic Tab

Band: Incubus
Song: Make Yourself (Acoustic)
Tuning: Standard - EADGBE

Intro (x2)
e|-----------------------------|---------------------------------|
B|-----------------------------|---------------------------------|
G|-----------------------------|---------------------------------|
D|-----------------------------|---------------------------------|
A|-9-----5-5-----5-5---x-5-7-x-|-9-----5-5-----5-5---x-5-5h7-7-x-|
E|-7-----3-3-----3-3---x-6-6-x-|-7-----3-3-----3-3---x-6-6---6-x-|

Verse (x4) (first 2 times play softer than usual; last 2 times play louder than usual)
e|-----------------------------|---------------------------------|
B|-----------------------------|---------------------------------|
G|-----------------------------|---------------------------------|
D|-----------------------------|---------------------------------|
A|-9-----5-5-----5-5---x-5-7-x-|-9-----5-5-----5-5---x-5-5h7-7-x-|
E|-7-----3-3-----3-3---x-6-6-x-|-7-----3-3-----3-3---x-6-6---6-x-|

Riff 1 (x1)
e|---------------------------------|---------------------------------|
B|---------------------------------|---------------------------------|
G|---------7-----7-----------------|---------------------------------|
D|-7---7-7-7---7-7---8-8-8-8---8-8-|-8-5-5---5---5-5---5-5---5-5-5-5-|
A|-5---5-5-5---5-5---8-8-8-8---8-8-|-8-5-5---5---5-5---5-5---5-5-5-5-|
E|-5---5-5-5---5-5---6-6-6-6---6-6-|-6-3-3---3---3-3---3-3---3-3-3-3-|

Verse (x2) (play softer than usual)
e|-----------------------------|---------------------------------|
B|-----------------------------|---------------------------------|
G|-----------------------------|---------------------------------|
D|-----------------------------|---------------------------------|
A|-9-----5-5-----5-5---x-5-7-x-|-9-----5-5-----5-5---x-5-5h7-7-x-|
E|-7-----3-3-----3-3---x-6-6-x-|-7-----3-3-----3-3---x-6-6---6-x-|

Verse (x2) (play louder than usual)
e|-----------------------------|---------------------------------|
B|-----------------------------|---------------------------------|
G|-----------------------------|---------------------------------|
D|-9---------------------------|-9-------------------------------|
A|-9-----5-5-----5-5---x-5-7-x-|-9-----5-5-----5-5---x-5-5h7-7-x-|
E|-7-----3-3-----3-3---x-6-6-x-|-7-----3-3-----3-3---x-6-6---6-x-|
[ Tab from: http://www.guitartabs.cc/tabs/i/incubus/make_yourself_acoustic_tab_ver_2.html ]
Chorus (x1)
e|---------------------------------|---------------------------------|
B|---------------------------------|---------------------------------|
G|-7---7-7-7---7-7-----------------|---------------------------------|
D|-7---7-7-7---7-7---8-8-8-8---8-8-|-8-5-5---5---5-5---5-5-5-5-5-5-5-|
A|-5---5-5-5---5-5---8-8-8-8---8-8-|-8-5-5---5---5-5---5-5-5-5-5-5-5-|
E|-5---5-5-5---5-5---6-6-6-6---6-6-|-6-3-3---3---3-3---3-3-3-3-3-3-3-|

e|---------------------------------|---------------------------------|
B|---------------------------------|---------------------------------|
G|-7-7---7-7---7-7-----------------|---------------------------------|
D|-7-7---7-7---7-7---8-8-8-8---8-8-|-8-5-5---5---5-5---3-3-3-3-3-3-3-|
A|-5-5---5-5---5-5---8-8-8-8---8-8-|-8-5-5---5---5-5---3-3-3-3-3-3-3-|
E|-5-5---5-5---5-5---6-6-6-6---6-6-|-6-3-3---3---3-3---1-1-1-1-1-1-1-|

e|---------------------------------|---------------------------------|
B|---------------------------------|---------------------------------|
G|-7-7---7-7---7-7-----------------|-------------------5-5-5---5-5-5-|
D|-7-7---7-7---7-7---8-8-8-8---8-8-|-8-5-5---5---5-5---5-5-5---5-5-5-|
A|-5-5---5-5---5-5---8-8-8-8---8-8-|-8-5-5---5---5-5---3-3-3---3-3-3-|
E|-5-5---5-5---5-5---6-6-6-6---6-6-|-6-3-3---3---3-3-----------------|

e|---------------------------------|---------------------------------|
B|---------------------------------|---------------------------------|
G|-7-7---7-7---7-7-----------------|---------------------------------|
D|-7-7---7-7---7-7---8-8-8-8---8-8-|-8-5-5---5---5-5---3-3-3-3-3-3-3-|
A|-5-5---5-5---5-5---8-8-8-8---8-8-|-8-5-5---5---5-5---3-3-3-3-3-3-3-|
E|-5-5---5-5---5-5---6-6-6-6---6-6-|-6-3-3---3---3-3---1-1-1-1-1-1-1-|

Bridge (x4)
e|---------------------------------|---------------------------------|
B|---------------------------------|---------------------------------|
G|---------------------------------|---------------------------------|
D|-7-----9-------5-------5-----5---|-7-----9-------5-------5-----7---|
A|-9-----7-------7-------x-----x---|-9-----7-------7-------x-----x---|
E|-----------------------6-----6---|-----------------------6-----6---|

Riff 2 (x3)
e|---------------------------------|
B|---------------------------------|      
G|--------------------play-loudly--|        then rest during:
D|-7-----9-------5-----5---5---5---|     "f*** me in my own way"
A|-9-----7-------7-----7---7---7---|
E|---------------------6---6---6---|
                      
Riff 3 (x4)
e|---------------------------------|
B|---------------------------------|
G|---------------------------------|
D|-9-----5-5-----5-5---x-x-5-x-5---|
A|-9-----5-5-----5-5---x-x-5-x-7---|
E|-7-----3-3-----3-3---x-x-6-x-6---|

Chorus (x1)

Outro (x4) play loudly
e|---------------------------------|
B|---------------------------------|
G|---------------------------------|
D|-9-----5-5-----5-5---x-x-5---5-x-|
A|-9-----5-5-----5-5---x-x-5h7-7-x-|
E|-7-----3-3-----3-3---x-x-6---6-x-|

rowelly
Comments