Incubus - Made For Tv Movie Chords & Tabs

 

Made For Tv Movie Chords & Tabs

Incubus Chords & Tabs

Version: 5 Type: Tab 0 ratings
1 star 2 stars 3 stars 4 stars 5 stars
comments

Made For Tv Movie Tab

   
Song: Made for TV Movie
Band: incubus
Album: A crow left of the murder... 
Tabbed by: Olivar Brito, Coimbra (Portugal) olivar@iol.pt 
06/05/2004


Intro:


    C    D#  C    D# A#
e|-------------------------|
B|-------------------------|
G|----0---0----0----0------|  (2X)
D|---2------5-2----5--0----|
A|--3--3-6-6-3--3-6--1-----|
E|-------------------------|


Verse:


(I heard a word...)

    C    D#  C    D# A#
e|-------------------------|
B|-------------------------|
G|----0---0----0----0------|  (4X)
D|---2------5-2----5--0----|
A|--3--3-6-6-3--3-6--1-----|
E|-------------------------|



Refrain:


(Hello...)

    G               E          C    D  A#A#    
e|--------------------------------------------|
B|--------------------------------------------|
G|-----------------------------5----7--3-3----| (2X)
D|--5----5----5-----2--2--2----5----7--3-3----|
A|--5----5----5-----2--2--2----3----5--1-1----|
E|--3----3p5--3p5---0--3--0----3----5--1-1----|



Solo Accompaniment:


    C    D#  C    D# A#
e|-------------------------|
B|-------------------------|
G|----0---0----0----0------| (2X)
D|---2------5-2----5--0----|
A|--3--3-6-6-3--3-6--1-----|
E|-------------------------|


Verse: (same)


Refrain:


(Hello...)

    G               E          C    D  A#A#    
e|--------------------------------------------|
B|--------------------------------------------|
G|-----------------------------5----7--3-3----| (4X)
D|--5----5----5-----2--2--2----5----7--3-3----|
A|--5----5----5-----2--2--2----3----5--1-1----|
E|--3----3p5--3p5---0--3--0----3----5--1-1----|
[ Tab from: http://www.guitartabs.cc/tabs/i/incubus/made_for_tv_movie_tab_ver_5.html ]
(Hold strings at 3rd time, hard distortion with delay at 4th) 



After 2nd refrain:

                                          A7 A7 A7 
e|-------------------------------------------------------|
B|----------------------------------------2--2--2--------|
G|----------------------------------------0--0--0--------|
D|--3^3--------------3x-3^3---------------2--2--2--------|
A|--3^3-1------1---1-3x-3^3-1------1---1--0--0--0--------|
E|--------3-0-3---3-----------3-0-3---3------------------|




(We are, we know...)

                                            A7 A7 A7 
e|---------------------------------------------------------|
B|------------------------------------------2--2--2--------|
G|------------------------------------------0--0--0--------| (2X)
D|----3^3--------------3x-3^3---------------2--2--2--------|
A|----3^3-1------1---1-3x-3^3-1------1---1--0--0--0--------|
E|---------3-0-3---3-----------3-0-3---3-------------------|





                                            A7 A7 A7 A7 A7 A7
e|--------------------------------------------------------------|
B|------------------------------------------2--2--2--2--2--2----|
G|------------------------------------------0--0--0--0--0--0----|
D|----3^3--------------3x-3^3---------------2--2--2--2--2--2----|
A|----3^3-1------1---1-3x-3^3-1------1---1--0--0--0--0--0--0----|
E|---------3-0-3---3-----------3-0-3---3------------------------|



End:


(Hello...)


    G    E    C    D  A#A#    
e|--3----0----3----5--1-1----|
B|--3----0----5----7--3-3----|
G|--4----1----5----7--3-3----| (2X)
D|--5----2----5----7--3-3----|
A|--5----2----3----5--1-1----|
E|--3----0----3----5--1-1----|



	This is fucking great to play, look out for the different guitar rythms and effects, enjoy...
Comments