Incubus - Made For Tv Movie Chords & Tabs

 

Made For Tv Movie Chords & Tabs

Incubus Chords & Tabs

Version: 1 Type: Tab 0 ratings
1 star 2 stars 3 stars 4 stars 5 stars
comments

Made For Tv Movie Tab

   
Artist: Incubus
Title: made for tv movie
Album: a crow left of the murder...

The introduction and verse riff goes like this, with some variation:

e:----------------------------------------------------------------------------------------------
G:---------------------------------------------------------------------------------------------
B:---------0-------------0---0-------------------0---------------0----------------------------
D:-----2-------2-----1-----------1----------2--------2------1---------------0---------------
A:--3-----------------------------------3-------------------------------1---------------------
E:---------------------------------------------------------------------------------------------

When it gets to the chorus mike starts to play power chords (5ths):

G5                E5         			         C5        D5   A#5
       Hello?!           I'm trying to focus but my eyes  decieve   me.     etc.

At the end of the chorus he plays a short solo:

 e:--------------------12-------------------------------------------------------
B:--10/12--12--12-------12/10--10/12--12-----------------------------------
G:----------------------------------------------12h14--11h12--9--------------
D:------------------------------------------------------------------------------
A:------------------------------------------------------------------------------
E:-------------------------------------------------------------------------------
[ Tab from: http://www.guitartabs.cc/tabs/i/incubus/made_for_tv_movie_tab.html ]
 e:-------------------12---------------------------------------------------------
B:--10/12--12--12------12/10---12--------------------------------------------
G:-------------------------------------12h14--11h12p11--9h11--7h9--6h7----
D:-------------------------------------------------------------------------------
A:-------------------------------------------------------------------------------
E:-------------------------------------------------------------------------------

Then there is another verse and another chorus before you hear this (with distortion), It is repeated all through "We are, We know, We see" bit :

 e:-------------------------------------------------------------------------------
B:-------------------------------------------------------------------------------
G:-------------------------------------------------------------------------------
D:-------------------------------------------------------------5-----------------
A:--3b--3--1------------1--------3b--3--1-------------1-----4-----------------
E:--------------3--1--3-----3--1-------------3--1--3---------5-----------------

Finally we get to the last chorus and we hear the same as before, just with full major chords instead of 5ths (most of these chords are barred, and in some of the he misses notes) : 
 
             G                E              C              D        A#
e:-------x-----------x----------x----------x------6----
B:-------x-----------x----------5----------7------6----
G:-------4-----------1----------5----------7------7----
D:-------5-----------2----------5----------7------8----
A:-------5-----------2----------3----------5------8----
E:--3-3--3-----------0----------x----------5------6----

Any corrections - post your own bloody version of it.   ***Theo.***
Comments