Incubus - Made For Tv Movie Chords & Tabs

 

Made For Tv Movie Chords & Tabs

Incubus Chords & Tabs

Version: 1 Type: Bass Tab 0 ratings
1 star 2 stars 3 stars 4 stars 5 stars
comments

Made For Tv Movie Bass Tab

artist 	  : incubus
album 	  : a crow left of the murder
song 	  : made for tv movie
tabbed by : emerix

nice and simple version. n.b. this is not what it is on the cd but fits in almost 
perfectly and most of it is virtually the same anyway. enjoy! ;-)

intro/verse:
G------0---4-0-0--------0---4-0------|
D----2---2-------1----2---2-------0--|
A--3----------------3-----------1----|
E------------------------------------|	x6 (in the first part of the riff you can play an
a on the g string instead of the first g, therefore,

G---0---4-2-0---						    
D-2---2-------1- etc)

chorus:
G--------------------------------------|
D--------------------------------------|
A-------------------333333335\11111111-|
E--33333333000000000-------------------|  x2
[ Tab from: http://www.guitartabs.cc/tabs/i/incubus/made_for_tv_movie_btab.html ]
during the little solo after the first chorus just play the verse riff twice.


verse:
G------0---4-0-0--------0---4-0------|
D----2---2-------1----2---2-------0--|
A--3----------------3-----------1----|
E------------------------------------|	x4


chorus:
G--------------------------------------|
D---------------------------0----------|
A-------------------33333333-11111111--|
E--33333333000000000-------------------|  x4 (3rd time palm muted, plus 4th if you wish, though not vital)


outro:
G-------------------------------------------|
D-------------------------------------------|
A--3--1--------1---3-3-1------1-----0-0-0---|
E--------3--0-3-3-0------3-0-3-3-0----------|    x4 (4th time add a couple of extra a's on the end)

then nothing till end.
Comments