Incubus - Just A Phase Chords & Tabs

 

Just A Phase Chords & Tabs

Incubus Chords & Tabs

Version: 9 Type: Tab 0 ratings
1 star 2 stars 3 stars 4 stars 5 stars
comments

Just A Phase Tab

|--------------------------------------------------
|-----------------------------------------------0--
|-----------0---6---4-------0-------------------11-
|-------0-5---0---7---5-------0-----------------0--
|-----4-----------------5/7-----0---9-----------9--
|-0-5-----------------------------7---7---------7-- repeat this chord and repeat sequence 
                                                    3 times

|-----------------------------------------------------------------
|-----------------------------------------------0----0-----0---0--
|-----------0---6---4-------0-------------------11---9-----11--9--
|-------0-5---0---7---5-------0-----------------0----0-----0---0--
|-----4-----------------5/7-----0---9-----------9----11----9---11-
|-0-5-----------------------------7---7---------7----0-----7---0-- work out the strumming 
                                                                   patern on the chords 

|-----------------------------------------------
|--------------------------------------------0--
|-----------0---6---4-------0----------------11-
|-------0-5---0---7---5-------0-------0------0--
|-----4-----------------5/7-----0---9--------9--
|-0-5-----------------------------7----------7-- repeat 3 times
[ Tab from: http://www.guitartabs.cc/tabs/i/incubus/just_a_phase_tab_ver_9.html ]
|---------------------------------------------------0---0---------0---0--
|-----------------------------------------------0---0---0----0----0---0--
|-----------0---6---4-------0-------------------11--9--/11---11---9--/11-
|-------0-5---0---7---5-------0-----------------0---0---0----0----0---0--
|-----4-----------------5/7-----0---9-----------9---7--/9----9----7--/9--
|-0-5-----------------------------7---7---------7---0---0----7----0---0--  with the 
                                                                           slides don't slide straight after the chord before strum the usual pattern and do one strum on the chord you slide to.

bridge
|-------------------------------------
|------3-3--3-3-3-3-3-----------------
|------4-4--4-4-4-4-4-----------------
|------5-5--5-5-5-5-5-----------------
|-4-4--5-5--5-5-5-5-5--4-4--4-4-4-4-4-
|-2-2--3-3--3-3-3-3-3--2-2--2-2-2-2-2-


|--------------------------------------------------
|-------0-----------------------0---------5--------
|-------6-----------0-----------6---------6--------
|-----6---6-------4---4-------6---6-----6---6------
|---7-------7---5-------5---7-------0-4---------6--
|-0-----------3-----------0-------------------4----
                                                       play two patterns alternately
|--------------------------------------------------
|-------0-----------------------0-----------5------
|-------6-----------0-----------6---------6--------
|-----6---6-------4---4-------6---6-----6----------
|---7-------7---5-------5---7-------0-4---------6--
|-0-----------3-----------0-------------------4---- (the run of notes 4 6 6 5, play as 
                                                     fast arpeggio)

|---------------------
|---------------------
|-------0-------------
|-----6---6-----------
|---4-------4---4---4-
|-5-----------5---4---

|----------------------------------
|----------------------------------
|--------------------------0-0-0-0-
|---------------------2-2--0-0-0-0-
|-10-10-10--6-6--2-2--0-0--x-x-x-x-
|-8--8--8---4-4--0-0-------3-3-3-3-

|-------------------------------
|-------------------------------
|-5-5-5-----------------0-0-0-0-
|-5-5-5------------2-2--0-0-0-0-
|-3-3-3--6-6--2-2--0-0--x-x-x-x-
|--------4-4--0-0-------3-3-3-3-

This gets to about 3:30 through the song and then I don't know anymore of it, but all 
of that is right if you manage to get the correct strumming patterns in.
Comments