Incubus - Just A Phase Chords & Tabs

 

Just A Phase Chords & Tabs

Incubus Chords & Tabs

Version: 7 Type: Tab 0 ratings
1 star 2 stars 3 stars 4 stars 5 stars
comments

Just A Phase Tab

Intro
   X4
e|------------------------------------------|-0-|------------------------
b|------------------------------------------|-0-|-Listen to Cd to find out
G|----------------6--4-------5--------------|-11|-strum pattern of this 
D|-------0h4-5-0---7--5--5h7---0----------0-|-0-|-chord.
A|-----4-------------------------0------9---|-9-|-
E|-0-5--------------------------------7-----|-7-|------------------------


e|-----------------------------|-0-|--------------------------
B|-----------------------------|-0-|-Strum pattern same as
G|-1--1-1-1-1-1--1--1--1--1-1--|-11|-the xx1220 chord
D|-2--2-2-2-2-2--2--2--2--2-2--|-0-|-
A|-2--2-2-2-2-2--2--2--2--2-2--|-9-|-
E|-0--0-0-0-0-0--0--0--0--0-0--|-7-|--------------------------

  ----------------------------|
  ----------------------------|
  -1--1-1-1-1-1--1--1--1--1-1-|
  -2--2-2-2-2-2--2--2--2--2-2-|
  -2--2-2-2-2-2--2--2--2--2-2-|
  -0--0-0-0-0-0--0--0--0--0-0-|


- Intro X4


e|----------------------------|-0-|-------------------------
B|----------------------------|-0-|Strum pattern the same as
G|-1--1-1-1-1-1--1--1--1--1-1-|-11|usual...
D|-2--2-2-2-2-2--2--2--2--2-2-|-0-|
A|-2--2-2-2-2-2--2--2--2--2-2-|-9-|
E|-0--0-0-0-0-0--0--0--0--0-0-|-7-|-------------------------

  --------------------------------------------------------
  --------------------------------------------------------
  -1--1-1-1-1-1--1--1--1--1-1--4--4-4-4-4-4--4--4--4--4-4-
  -2--2-2-2-2-2--2--2--2--2-2--5--5-5-5-5-5--5--5--5--5-5-
  -2--2-2-2-2-2--2--2--2--2-2--5--5-5-5-5-5--5--5--5--5-5-
  -0--0-0-0-0-0--0--0--0--0-0--3--3-3-3-3-3--3--3--3--3-3-
[ Tab from: http://www.guitartabs.cc/tabs/i/incubus/just_a_phase_tab_ver_7.html ]
  ----------------------------|
  ----------------------------|
  -3--3-3-3-3-3--3--3--3--3-3-|
  -4--4-4-4-4-4--4--4--4--4-4-|
  -4--4-4-4-4-4--4--4--4--4-4-|
  -2--2-2-2-2-2--2--2--2--2-2-|

Verse

e|---------------------------------------|--------------|
B|-------0-------------------------0-----|-----5--------|
G|-------6------------0------------6-----|-----6--------|
D|-----6---6--------4-5-4--------6---6---|---6----6-----|
A|---7-------7----5-------5----7-------7-|-4----------6-|
E|-0------------3------------0-----------|----------4---|


e|---------------------------------------|--------------|
B|-------0-------------------------0-----|-----5--------|
G|-------6------------0------------6-----|----6---------|
D|-----6---6--------4-5-4--------6---6---|---6----6-----|
A|---7-------7----5-------5----7-------7-|-4----------6-|
E|-0------------3------------0-----------|----------4---|

Pre-chorus

e|--------------------------------------------------------------------------------|
B|--------------------------------------------------------------------------------|
G|-------0---------------------0-----------------0--------------------0-----------|
D|-----6---6-------6---6-----6---6------6-------6---6------6---6-----6---6-----6--|
A|---4-------4-------------4-------4---------4-------4------------4-------4-------|
E|-5-------------5---4---5------------5----5------------5---4---5------------5----|

Chorus
  pm..................................
e|------------------------------------|
b|------------------------------------|
G|-5-5-5------------------------------|
D|-5-5-5-6-6-2-2--7--7-7--7-7---5-5-5-|
A|-3-3-3-6-6-2-2--7--7-7--7-7---5-5-5-|
E|-------4-4-0-0--5--5-5--5-5---3-3-3-|


- Verse x4
- Pre-chorus x1
- Chorus (palm muted) x4(for 1st chorus) x3(still palm muted) then 
- x12(not palm muted with distortion)

Comments