Incubus - Just A Phase Chords & Tabs

 

Just A Phase Chords & Tabs

Incubus Chords & Tabs

Version: 4 Type: Tab 0 ratings
1 star 2 stars 3 stars 4 stars 5 stars
comments

Just A Phase Tab

#----------------------------------PLEASE NOTE---------------------------------#
#This file is the author's own work and represents their interpretation of the #
#song. You may only use this file for private study, scholarship, or research. #
#------------------------------------------------------------------------------##

Just A Phase by Incubus
Tabbled by: Juan Pablo Guerra

Intro:
e---------------------------------0
B---------------------------------3
G---------0---6---4-0-----0-------4
D-------0---0---7-----0-2---2-----4
A---0-4-----------------------0-2-2
E-0-------------------------------x
[ Tab from: http://www.guitartabs.cc/tabs/i/incubus/just_a_phase_tab_ver_4.html ]
Verses:
e---------------------------------------------
B-------5-----------------------5---------5-5-
G-------6-----------0-----------6--------6-6--
D-----6---6-------4---4-------6---6-----6-----
A---7-------7---5-------5---7-------7--7------
E-0-----------0-----------0-----------0-------

Pre-Chorus    (Who are you?....)
e---------------------------------
B---------------------------------
G-------0-----------------0-------
D-----6---6-------------6---6-----
A---4-------4---4-----4-------4---
E-5-----------5---5-5-----------5-

or play it:
e-------------------------------
B-------------------------------
G-------0-----------------0-----
D-----6---6-------------6---6---
A-0-4-------4-0-4-0-0-4-------4-
E-------------------------------

Chorus (strum this chords):
e--------------
B--------------
G-2-----5------
D-2--5--5--6---
A-0--5--3--6---
E----3-----4---


That's it! enjoy music...play incubus
Comments