Incubus - Just A Phase Chords & Tabs

 

Just A Phase Chords & Tabs

Incubus Chords & Tabs

Version: 1 Type: Tab 0 ratings
1 star 2 stars 3 stars 4 stars 5 stars
comments

Just A Phase Tab

Incubus
Just a phase
Standard Tuning

These are 100% correct

 intro 
---------------------------------------2--- ------2-----3--2--
---------------------------------------3--- ------3-----3--2--
---------------6---4-------------------4--- ---1--4--1--4--3--
---------5-0-----7---5-0h2-5-0-----2---4--- ---2--4--2--5--4--
---0-4-5-----------------------0-2---2-2--- ---2--2--2--5--4--
-0----------------------------------------- ------------3--2--

main riff
--------------------------------------------------------
-------5-----------------------5----------5-------------
-------6-----------0-----------6----------6-------------
-----6---6-------4---4-------6---6------6---6-----------
---7-------7---5-------5---7-------7--4---------6-------
-0-----------0-----------0--------------------4---------
[ Tab from: http://www.guitartabs.cc/tabs/i/incubus/just_a_phase_tab.html ]
Who are you? ...
-------------------------------------------------------------------------------
-------------------------------------------------------------------------------
-------0-------------------0-------------------0-------------------0-----------
-----6---6---------------6---6---------------6---6---------------6---6---------
---4-------4---4---4---4-------4---4---4---4-------4---4---4---4-------4-------
-5-----------5---4---5-----------5---4---5-----------5---4---5-----------5/-8--

It's just a phase ...
------------------------------------(0)-----------------------------------
---------------------------------(0)(0)-----------------------------------
-------------------------2--2--2--2--2------------------------------------
-10--10--10--6--6--2--2--2--2--2--2--2--5-5-5-----------------------------
-10--10--10--6--6--2--2--0--0--0--0--0--5-5-5-----------------------------
--8---8---8--4--4--0--0-----------------3-3-3-0---------------------------
Comments