Incubus - Just A Phase Complete Chords & Tabs

 

Just A Phase Complete Chords & Tabs

Incubus Chords & Tabs

Version: 1 Type: Tab 0 ratings
1 star 2 stars 3 stars 4 stars 5 stars
comments

Just A Phase Complete Tab

 Band: Incubus
 Song: Just a Phase
 Album: Morning View
 Tabbed By: Alex Stacy

 Intro   X4
 E|---------------------------------------0---0--0--0--0--0---0---0---0---0--0-|
 B|---------------------------------------0---0--0--0--0--0---0---0---0---0--0-|
 G|-----------0---6---4-------------------11--11-11-11-11-11--11--11--11--11-11|
 D|---------5---0---7---5-----5---------0-0---0--0--0--0--0---0---0---0---0--0-|
 A|-----4-5---------------5h7---5-----9---9---9--9--9--9--9---9---9---9---9--9-|
 E|-0h5---------------------------5-7-----7---7--7--7--7--7---7---7---7---7--7-|

 E|-----------------------------0---0--0--0--0--0---0---0---0---0--0--
 B|-----------------------------0---0--0--0--0--0---0---0---0---0--0--
 G|-1--1-1-1-1-1--1--1--1--1-1--11--11-11-11-11-11--11--11--11--11-11-
 D|-2--2-2-2-2-2--2--2--2--2-2--0---0--0--0--0--0---0---0---0---0--0--
 A|-2--2-2-2-2-2--2--2--2--2-2--9---9--9--9--9--9---9---9---9---9--9--
 E|-0--0-0-0-0-0--0--0--0--0-0--7---7--7--7--7--7---7---7---7---7--7--

   ----------------------------|
   ----------------------------|
   -1--1-1-1-1-1--1--1--1--1-1-|
   -2--2-2-2-2-2--2--2--2--2-2-|
   -2--2-2-2-2-2--2--2--2--2-2-|
   -0--0-0-0-0-0--0--0--0--0-0-|


 - Intro X4


 E|-----------------------------0---0--0--0--0--0---0---0---0---0--0--
 B|-----------------------------0---0--0--0--0--0---0---0---0---0--0--
 G|-1--1-1-1-1-1--1--1--1--1-1--11--11-11-11-11-11--11--11--11--11-11-
 D|-2--2-2-2-2-2--2--2--2--2-2--0---0--0--0--0--0---0---0---0---0--0--
 A|-2--2-2-2-2-2--2--2--2--2-2--9---9--9--9--9--9---9---9---9---9--9--
 E|-0--0-0-0-0-0--0--0--0--0-0--7---7--7--7--7--7---7---7---7---7--7--
[ Tab from: http://www.guitartabs.cc/tabs/i/incubus/just_a_phase_complete_tab.html ]
   --------------------------------------------------------
   --------------------------------------------------------
   -1--1-1-1-1-1--1--1--1--1-1--4--4-4-4-4-4--4--4--4--4-4-
   -2--2-2-2-2-2--2--2--2--2-2--5--5-5-5-5-5--5--5--5--5-5-
   -2--2-2-2-2-2--2--2--2--2-2--5--5-5-5-5-5--5--5--5--5-5-
   -0--0-0-0-0-0--0--0--0--0-0--3--3-3-3-3-3--3--3--3--3-3-

   ----------------------------|
   ----------------------------|
   -3--3-3-3-3-3--3--3--3--3-3-|
   -4--4-4-4-4-4--4--4--4--4-4-|
   -4--4-4-4-4-4--4--4--4--4-4-|
   -2--2-2-2-2-2--2--2--2--2-2-|

 Verse

 E|---------------------------------------|--------------|
 B|-------0-------------------------0-----|-----5--------|
 G|-------1------------0------------1-----|-----6--------|
 D|-----2---2--------4-5-4--------2---2---|---6----6-----|
 A|---2-------2----5-------5----2-------2-|-4----------6-|
 E|-0------------3------------0-----------|----------4---|


 E|---------------------------------------|--------------|
 B|-------0-------------------------0-----|-----5--------|
 G|-------1------------0------------1-----|----6---------|
 D|-----2---2--------4-5-4--------2---2---|---6----6-----|
 A|---2-------2----5-------5----2-------2-|-4----------6-|
 E|-0------------3------------0-----------|----------4---|

 Pre-chorus

 E|-------------------------------------------------------------------------------|
 B|-------------------------------------------------------------------------------|
 G|-------0---------------------0-----------------0--------------------0----------|
 D|-----6---6-----------------6---6-------------6---6----------------6---6--------|
 A|---4-------4-----4---4---4-------4----3----4-------4----4---4---4-------4----3-|
 E|-5-------------5---4---5------------5----5------------5---4---5------------5---|

 Chorus
   pm..................................
 E|------------------------------------|
 B|------------------------------------|
 G|-5-5-5------------------------------|
 D|-5-5-5-6-6-2-2--7--7-7--7-7---5-5-5-|
 A|-3-3-3-6-6-2-2--7--7-7--7-7---5-5-5-|
 E|-------4-4-0-0--5--5-5--5-5---3-3-3-|


 - Verse
 - Pre-chorus
 - Chorus (palm muted)
 - Chorus (not palm muted)
Comments