Incubus - I Wish You Were Here Chords & Tabs

 

I Wish You Were Here Chords & Tabs

Incubus Chords & Tabs

Version: 5 Type: Tab 0 ratings
1 star 2 stars 3 stars 4 stars 5 stars
comments

I Wish You Were Here Tab

#----------------------------------PLEASE NOTE--------------------------------#
#This file is the author's own work and represents their interpretation of the#
#song. You may only use this file for private study, scholarship, or research.#
#-----------------------------------------------------------------------------#
#-- File created with Instab - http://www.pconline.com/~smcarey/instab.html --#
#-----------------------------------------------------------------------------#

Author/Artist: Incubus
Title: I wish you were here
Album: Morning View
Transcribed by: Nick Kramperth
Email: Jamminick3@aol.com
[ Tab from: http://www.guitartabs.cc/tabs/i/incubus/i_wish_you_were_here_tab_ver_5.html ]
------------------------------------------------------------------------------|
--0----0---0----0-------------------------------------------------------------|
--4----4---4----7-------------------------------------------------------------|
--2----2---4----7-------------------------------------------------------------|
--0----2---2----5-------------------------------------------------------------|
-------0---2----5-------------------------------------------------------------|
 these are the chords, listen to the song for the rythm

------------------------------------------------------------------------------|
--------------------------------10--------------------------------------------|
-9-99-9h11---------------9h11----------9-99-9h11-----------9h11-11------------|
-----------11----11-9h11-------------------------11---9h11--------------------|
------------------------------------------------------------------------------|
------------------------------------------------------------------------------|
 this is in the verses, its close, but not perfect
Comments