Incubus - I Miss You Chords & Tabs

 

I Miss You Chords & Tabs

Incubus Chords & Tabs

Version: 4 Type: Tab 0 ratings
1 star 2 stars 3 stars 4 stars 5 stars
comments

I Miss You Tab

   
#-----------------------------PLEASE NOTE-------------------------------------#
#This OLGA file is the author's own work and represents their interpretation  #
#of the song. You may only use this file for private study, scholarship, or   #
#research. Remember to view this file in Courier, or some other monospaced    #
#font. See http://www.olga.net/faq/ for more information.                     #
#-----------------------------------------------------------------------------#

Date: Mon, 26 Jun 2000 19:12:31 -0400
From: Robert Seder 
Subject: i/incubus/i_miss_you.tab


                           Guitar Tablature for 'I Miss You'
                                    by The Incubus

Album Info:
-------------------------------------
 Song:    I Miss You
 Artist:  Incubus
 Album:   Make Yourself
 Version: Album version (and acoustic version)
 Sony/Epic; ASIN: B0000296JB 
-------------------------------------

 Transcribed by: Robert Seder [robertcseder@yahoo.com]

This is played with a single electric or acoustic guitar in standard
tuning, but with the low E string tuned down a D (DADGBE). This
tablature is my own work, it may be distributed freely.

Guitar Setup:
Acoustic - None
Electric - On a Line6 Pod, I used "Pod Clean"; 0% drive; 100% B/M/T; and 
           set the chorus to match the song.
[ Tab from: http://www.guitartabs.cc/tabs/i/incubus/i_miss_you_tab_ver_4.html ]
Playing:
This actually a well-written, but easy song to play. Since it's so simple,
there is LOTS of room to fool around with chords and playing on this song.
I just outlined the basic chords below. Listen to the song for the feel.

The only odd part is the 2nd run of the pre-chorus, to play that funny part,
play the 10th fret with your pinky and let your index finger muffle the B
string
and strum the quick change on the 7th fret.

---------

Main Riff (verse):
                         Harmonic
E|---------------------------------
B|---------------------------------
G|----------------------(7)--------
D|-----0-----------0---0-----------
A|---4---4---4---4---4-------------
D|-0-------0---5-------------------


Pre-Chorus
   Bm        G             Dsus4(add2)
E|-------------------------0-----------
B|-------0---------0-------5-----------
G|-----4---------0---0-----0-----------
D|---0---------0-------0---4-----------
A|-2-----------------------5-----------
D|-----------5-------------0-----------

   Bm        G             Dsus4(add2)
E|----------------------------10-10-10--
B|-------0---------0--------------------
G|-----4---------0---0-----0---7-----7--
D|---0---------0-------0---4------7-----
A|-2-----------------------5------------
D|-----------5-------------0------------

   Bm        G             Dsus4(add2)
E|-------------------------------------
B|-------0---------0-------------------
G|-----4---------0---0-----------------
D|---0---------0-------0---0-----------
A|-2-----------------------0-----------
D|-----------5-------------0-----------

   Bm    G
E|--------------
B|-0-----0--0---
G|-4-----0--0---
D|-0-----5--4---
A|-2------------
D|-------5--5---
Comments