Incubus - I Miss You Chords & Tabs

 

I Miss You Chords & Tabs

Incubus Chords & Tabs

Version: 2 Type: Bass Tab 0 ratings
1 star 2 stars 3 stars 4 stars 5 stars
comments

I Miss You Bass Tab

Artist: Incubus
Song: I miss you
Album: make yourself
Tabbed by  mr_sucubus

It's a very easy song to play.  

Verse:  You'll have to listen to the song to find out how many times to play this.  
It's a bunch and I wasn't about to count em all up.
--------------------------------------------------------
------------------5--------------------------5----------
-5-----------5----------------5---------5---------------
--------------------------------------------------------
[ Tab from: http://www.guitartabs.cc/tabs/i/incubus/i_miss_you_btab_ver_2.html ]
Chorus:
--------------------------------------------------------
--------------------------------------------------------
-2--2-2--------------5--5-5--5--5-5---------------------    2Xs
-----------3--3-3---------------------------------------


--------------------------------------------------------------------------
----------------------------------------------------------5--5-5--5--5-5--
-2--2-2--------------5--5-5--2--22----------------------------------------
-----------3--3-3----------------------3-3-3--3--3-3----------------------


any questions or comments... send to  mr_sucubus@yahoo.com 
Comments