Incubus - I Miss You Acoustic Chords & Tabs

 

I Miss You Acoustic Chords & Tabs

Incubus Chords & Tabs

Version: 3 Type: Tab 0 ratings
1 star 2 stars 3 stars 4 stars 5 stars
comments

I Miss You Acoustic Tab

   
     Incubus - I Miss You (Acoustic)
   By: J. Aiken
 
   *Tuning* - Drop D (Low E to D)


 Intro:  (x12)   (0:00-0:35)

[E------------------------------------------]
[B------------------------------------------]
[G------------------------------------(7)---]
[D---------0-----------------0-----0--------]
[A------4-----4-----4-----4-----4-----------]
[D---0-----------0-----5--------------------]     ()- Signifies Harmonic Notes
                                                      *12th time no harmonic*


 Bridge:   (0:35-0:59)


[E-------------------------------000-0------------------------------xxx-xx-
[B-------0-----------------------000-0------0-----------------------333-33-
[G---------0-----------0---------000-0--------0-----------0---------222-22-
[D-----4-----4-------4-----------444-4----4-----4-------4-----------444-44-
[A---2---------2---0-------------222-2--2---------2---0-------------xxx-xx-
[D---------------5-------5/7--0--xxx-x--------------5-------5/7--0--xxx-xx-

----------------------------------x-xx---x-xxx---x-xxx---x-xxx---x-xx-----]
-----0----------------------------x-xx---x-xxx---x-xxx---x-xxx---x-xx-----]
-------0-----------0--------------0-00---0-000---x-xxx---0-000---0-00-----]
---4-----4-------4----------------4-44---4-444---4-444---4-444---4-44-----]
-2---------2---0------------------2-22---2-222---2-222---0-000---0-00-----]
-------------5-------5/7--0---000-0-xx-0-x-xxx-0-x-xxx-0-5-555-0-5-55-0---]
/ - Slide Up


 Chorus:   (x16)   (1:00-1:46)
[ Tab from: http://www.guitartabs.cc/tabs/i/incubus/i_miss_you_acoustic_tab_ver_3.html ]
[E-----------------------------------------]
[B-----------------------------------------]
[G------------------------------------(7)--]
[D---------0-----------------0-----0-------]
[A------4-----4-----4-----4-----4----------]     
[D---0-----------0-----5-------------------]     () - Signifies Harmonic Notes
                                                      *16th time no harmonic
                                       

 Bridge:   (1:47-2:10)

[E-------------------------------000-0------------------------------xxx-xx-
[B-------0-----------------------000-0------0-----------------------333-33-
[G---------0-----------0---------000-0--------0-----------0---------222-22-
[D-----4-----4-------4-----------444-4----4-----4-------4-----------444-44-
[A---2---------2---0-------------222-2--2---------2---0-------------xxx-xx-
[D---------------5-------5/7--0--xxx-x--------------5-------5/7--0--xxx-xx-

----------------------------------x-xx---x-xxx---x-xxx---x-xxx---x-xx-----]
-----0----------------------------x-xx---x-xxx---x-xxx---x-xxx---x-xx-----]
-------0-----------0--------------0-00---0-000---x-xxx---0-000---0-00-----]
---4-----4-------4----------------4-44---4-444---4-444---4-444---4-44-----]
-2---------2---0------------------2-22---2-222---2-222---0-000---0-00-----]
-------------5-------5/7--0---000-0-xx-0-x-xxx-0-x-xxx-0-5-555-0-5-55-0---]
/ - Slide Up



 Chorus:   (x4)   (2:10-2:21)

[E-----------------------------------------]
[B-----------------------------------------]
[G------------------------------------(7)--]
[D---------0-----------------0-----0-------]
[A------4-----4-----4-----4-----4----------]     
[D---0-----------0-----5-------------------]     () - Signifies Harmonic Notes



 Outro:   (2:22-2:25)

[--------<5>---]
[-------3------]
[------2-------]
[-----0--------]
[----0---------]
[---0----------]     <> - Let Ring


--------------------------------------------------------------------------------
Comments