Incubus - I Miss You Acoustic Chords & Tabs

 

I Miss You Acoustic Chords & Tabs

Incubus Chords & Tabs

Version: 2 Type: Tab 0 ratings
1 star 2 stars 3 stars 4 stars 5 stars
comments

I Miss You Acoustic Tab

   
Artist : Incubus
Song : I Miss You (Acoustic Version)
Tabbed by Mikhail Asanovic

This is my version of I Miss You Acoustic, a song which I have found repeatedly 
difficult to find tabs for. It is still one of my favourite acoustic songs. If the 
chorus seems a bit strange, it is because I have tried to follow the rhythm as closely 
as possible.

H = Natural harmonic

x11                      12th Time
e------------------------|----------------------|
B------------------------|----------------------|
G------------------------|----------------------|
D-----0-----------0---0H5|-----0-----------0---0|
A---4---4---4---4---4----|---4---4---4---4---4--|
D-0-------0---5----------|-0-------0---5--------|
[ Tab from: http://www.guitartabs.cc/tabs/i/incubus/i_miss_you_acoustic_tab_ver_2.html ]
Chorus
e-------------|------------|-----0---0---0-0----|
B------0------|------------|-----3---3---3-3----|
G--------0----|----------7-|-----2---2---2-2----|
D---4------4--|-----5----7-|-0-0-0-0-0-0-0-0-0--|
A-2----------0|---5---5--5-|-0-0-0-0-0-0-0-0-0--|
D-------------|-5--------5-|-0-0-0-0-0-0-0-0-0--|

e--------------|------------|---12---12---12-12-|
B------0-------|------------|---15---15---15-15-|
G--------0-----|----------7-|---14---14---14-14-|
D---4------4---|-----5----7-|-0-12-0-12-0-12-12-|
A-2----------0-|---5---5--5-|-0-12-0-12-0-12-12-|
D--------------|-5--------5-|-0-12-0-12-0-12-12-|

e--------------|------------|---------------|
B------0-------|------------|---------------|
G--------0-----|----------7-|-------7-7-7-7-|
D---4------4---|-----5----7-|-0-0-0-9-9-9-9-|
A-2----------0-|---5---5--5-|-0-0-0-9-9-9-9-|
D--------------|-5--------5-|-0-0-0-9-9-9-9-|

e---------------|-------------------|
B-0-0-0-0-0-0-0-|-------------------|
G-0-0-0-0-0-0-0-|-------------------|
D-0-0-0-0-0-0-0-|-7-7-7-7-7-7-7-7-7-|
A-5-5-5-5-5-5-5-|-5-5-5-5-5-5-5-5-5-|
D-5-5-5-5-5-5-5-|-5-5-5-5-5-5-5-5-5-|

I think it's almost correct, although in the chorus the second chord is played as a full 
chord and is not broken up that much, but that is the chord in its key parts.
Comments