Incubus - Hilikus Chords & Tabs

 

Hilikus Chords & Tabs

Incubus Chords & Tabs

Version: 2 Type: Tab 0 ratings
1 star 2 stars 3 stars 4 stars 5 stars
comments

Hilikus Tab

#-----------------------------PLEASE NOTE-------------------------------------#
#This OLGA file is the author's own work and represents their interpretation  #
#of the song. You may only use this file for private study, scholarship, or   #
#research. Remember to view this file in Courier, or some other monospaced    #
#font. See http://www.olga.net/faq/ for more information.                     #
#-----------------------------------------------------------------------------#

Date: Sun, 24 Sep 2000 19:05:23 -0400
From: Robert Seder 
Subject: i/incubus/hilikus_solo.tab


                           Guitar Tablature for 'Hilikus'
                                     by Incubus

Album Info:
-------------------------------------
 Song:    Hilikus - Solo Only
 Artist:  Incubus
 Album:   Enjoy Incubus
 Version: Album version
 Sony/Columbia; ASIN: B000002BSF 
-------------------------------------

 Transcribed by: Robert Seder [robertcseder@yahoo.com]

This is just the solo between 2:02 and 2:40.


2:02 (overdrive)
E|--15-15--17-17---17-15--15-14--15-14--14--14----------
B|------------------------------------------------------
G|------------------------------------------------------
D|------------------------------------------------------
A|------------------------------------------------------
E|------------------------------------------------------

E|--17-----17------------15-----------------------------
B|-----17------17-----------17----------14h15p14----14--
G|-----------------14----------14---16-----------16-----
D|------------------------------------------------------
A|------------------------------------------------------
E|------------------------------------------------------

E|------------------------------------------------------
B|------------------------------------------------------
G|--17-16-15-14-13-12----12---/14-----------------------
D|--------------------14----14--------------------------
A|------------------------------------------------------
E|------------------------------------------------------

[ Tab from: http://www.guitartabs.cc/tabs/i/incubus/hilikus_tab_ver_2.html ]
2:10
E|------------------------------------------------------
B|----------------14^-12----12-12---12------------------
G|--14p12--14p12---------14------------14---------------
D|----------------------------------------14------------
A|-------------------------------------------12---------
E|------------------------------------------------------

E|--------------------------19-15-----------------------
B|--------------------------------17-15-14--------------
G|-----------------------------------------16-14--------
D|------------------------------------------------------
A|--12-/-14-\-12-12\10----------------------------------
E|------------------------------------------------------

E|--19-15---------------------------15-19-17-15---------
B|--------17-15-14---------------------------14---------
G|------------------14/16\14/16/14----------------------
D|------------------------------------------------------
A|------------------------------------------------------
E|------------------------------------------------------


2:22 (distortion/compressor)
E|------------------------------------------------------
B|--/13~~~~~~~--10/12\10/12\10/12\10/12~~~~-------------
G|------------------------------------------------------
D|------------------------------------------------------
A|------------------------------------------------------
E|------------------------------------------------------

E|-----17----19----20----19---/17-/19-/19\17\----15-----
B|--15----15----15----15----15---------------17--15-----
G|------------------------------------------------------
D|------------------------------------------------------
A|------------------------------------------------------
E|------------------------------------------------------

  |------------------|3x
E|--22-------22-----------19-----20-19------------------
B|-----20-------20---------------------20---------------
G|--------19-------19---------------------19-17\16------
D|------------------------------------------------------
A|------------------------------------------------------
E|------------------------------------------------------

E|--19-19---17-17------22^-22-20-19----17^--------------
B|----------------------------------20------------------
G|--16-16---14-14---------------------------------------
D|------------------------------------------------------
A|------------------------------------------------------
E|------------------------------------------------------
Comments