Incubus - Here In My Room Chords & Tabs

 

Here In My Room Chords & Tabs

Incubus Chords & Tabs

Version: 3 Type: Tab 0 ratings
1 star 2 stars 3 stars 4 stars 5 stars
comments

Here In My Room Tab

Author/Artist: Incubus
Title: Here in my room

I downloaded a video of this from an Incubus fan site and liked it, and then it was
on 'Live in Japan' cd as well, so I decided to translate the piano parts onto guitar.
1 is in open position and would be the left hand on the piano playing the deeper
notes, guitar 2 is with a capo on fret 12 (an octave up basically) and resembles
the right hand on. There's also the added parts of Brandon on guitar in the intro
and under the solo.  Live Mike tends to play the solo with the guitar on his lap
and goes back to the keyboard after, however I have seen it played on the decks
by Kilmore, but I've tabbed it out anyway.
The order's a bit awkward so I'll try explain it.
First all 3 parts play the intro, then the two pieces showing the piano pattern
repeat, Brandon's guitar goes into the rhythm section below.  The two piano pieces
then play again through the verse, and then the capo'd guitar plays the 'end of
verse' section, whilst the open guitar just repeats the intro section again.
After that it's quite simple, but just wanted to try and explain the first few lines.

 Intro/Verse (Brandon guitar not played in verse, just piano pieces)
|-0------------------------------0------------------------------|
|-1------------------------------1------------------------------|
|-0-------------------0----------0---------------0---0---0---0--|
|-2-----------------1-1----------2---------------1---1---1---1--|
|-3---------------3---3--3-1---1-3---------------3---3---3---3--|
|----------------------------4----------------------------------|
| Left hand piano - Guitar 1
|
|---------------------------------------------------------------|
|---------------------------------------------------------------|
|-----0---1-----------0-0------------0---1-------0---0---0---0--|
|---2---------1-----1-1-1----------2---------1---1---1---1---1--|
|-3-----3---3---3-3---3-3--------3-----3---3---3-3---3---3---3--|
|---------------------------------------------------------------|
| Right hand piano - Guitar 2 (capo 12)
|
|---------------------------------------------------------------|
|------------------------------------------------4--------------|
|------------------------------------0---1-0-----x--------------|
|----------------------------------2----2----1---1--------------|
|--------------------------------3-----3-------3-3--------------|
|---------------------------------------------------------------|
  Brandon Guitar

|-----------------4---4---4---4------------------4---4---4---4--|
|-5---5---5---5---4---4---4---4--5---5---5---5---4---4---4---4--|
|-5---5---5---5---5---5---5---5--5---5---5---5---5---5---5---5--|
|-5---5---5---5---6---6---6---6--5---5---5---5---6---6---6---6--|
|-3---3---3---3---6---6---6---6--3---3---3---3---6---6---6---6--|
|-----------------4---4---4---4------------------4---4---4---4--|
  Brandon Guitar (before vocals)
[ Tab from: http://www.guitartabs.cc/tabs/i/incubus/here_in_my_room_tab_ver_3.html ]
 End of Verse
|------------------------------------------------------------3--|
|----------------------------------------------------------4----|
|-----0---1-----------0-0------------0---1-------0---0---5------|
|---2---------1-----1-1-1----------2---------1---1---1----------|
|-3-----3---3---3-3---3-3--------3-----3---3---3-3---3----------|
|---------------------------------------------------------------|
  (right hand)

 Pre-Chorus
|--------------------------------|
|-2------------------------------|
|-3------------------------------|
|-3------------------------------|
|-1------------------------------|
|--------------------------------|
| (piano - guitar 1)
|
|--------------------------------|
|---------2----------------------|
|-----3-------3-0----------------|
|---3---3---3-----3--------------|
|-1------------------------------|
|--------------------------------|
  (piano - guitar 2)

 Chorus
|------------------------------------------|
|------------------------------------------|
|-----0---1-------0-0-0-0---------5-5-5-5--|
|---2---------1---1-1-1-1-3-3-3-3-6-6-6-6--|
|-3-----3---3---3-3-3-3-3-3-3-3-3-6-6-6-6--|
|-------------------------1-1-1-1-4-4-4-4--|


|-9-----8----6---8-----3--1------6------18------9----8-----5----3-5-6------3-|
|----------------------------------------------------------------------------|
|----------------------------------------------------------------------------|
|----------------------------------------------------------------------------|
|----------------------------------------------------------------------------|
|----------------------------------------------------------------------------|
| Tremolo picked (1:35)                                                    ^just picked once
|
|------------4------------1------4--------------4----------1--------4--------|
|-5----------4------------1------4-------5------4----------1--------4--------|
|-5----------5------------2------5-------5------5----------2--------5--------|
|-5----------6------------3------6-------5------6----------3--------6--------|
|-3----------6------------3------6-------3------6----------3--------6--------|
|------------4------------1------4--------------4----------1--------4--------|
  Guitar rhythm under solo

 Outro (right hand)
|--------------------------------------|
|----------------------------4-----4---|
|-------------------------5-------5----|
|----------------------6---------6-----|
|-------------------6------------------|
|--------------------------------------|
 "kind of girl...."

any questions? andrewbiles@hotmail.com
____________________________
Lyrics (seeklyrics.com):

This party is old and uninviting
Participants in black and white
You enter in full-blown deck of color
Nothing is the same after tonight

If the world would fall apart
In a fiction-worthy wind
I wouldn't change a thing
Now that you're here

Love is a verb
Here in my room (3x)
Your love is a verb
Here in my room (3x)

You enter and close the door behind you
Now show me the world seen from the stars
If only the lights would dim on winter
I'm wary of eyes upon the skies

If the world would fall apart
In a fiction-worthy wind
I wouldn't change a thing
Now that you're here

Love is a verb
Here in my room (3x)
Your love is a verb
Here in my room (3x)

Tractor beam into your incision
Spinning as free ? vicious world
I came here expecting next to nothing
So thank you for being that kind of girl
Kind of girl (10x)
Comments