Incubus - Here In My Room Chords & Tabs

 

Here In My Room Chords & Tabs

Incubus Chords & Tabs

Version: 2 Type: Tab 0 ratings
1 star 2 stars 3 stars 4 stars 5 stars
comments

Here In My Room Tab

Incubus - Here In My Room

as you know, this song is mainly piano, but you can play along with
the piano with this

Intro/Verse - clean tone

e-----3---4---3---------------------------
b-----------------------------------------
g-----------------------------------------
d---2---2---2---2--6-6-6-8-6-8------------
a-3----------------6-6-6-8-6-8------------
E------------------4-4-4-6-4-6------------


Pre Chorus

e---------10--6---------------------------
b-----------------------------------------
g-----------------------------------------
d-8-8-8-8-8-8-8---------------------------
a-8-8-8-8-8-8-8---------------------------
E-6-6-6-6-6-6-6---------------------------

Chorus
[ Tab from: http://www.guitartabs.cc/tabs/i/incubus/here_in_my_room_tab_ver_2.html ]
e-----3---4---3-----------------------------------
b-------------------------------------------------
g-------------------------------------------------
d---2---2---2---2--6-6-6-8-6-8-3-3-3-3-6-6-6-6----
a-3----------------6-6-6-8-6-8-3-3-3-3-6-6-6-6----
E------------------4-4-4-6-4-6-1-1-1-1-4-4-4-4----

Guitar Solo - distortion, delay, phase, flange - basicly anything you have
that you think sounds cool, im not sure what it is mike uses here.

e-9///-8///-6///-4//-5///-6///---18/////-9///-8///-6//-----15//---
b-----------------------------------------------------------------
g-----------------------------------------------------------------
d-----------------------------------------------------------------
a-----------------------------------------------------------------
E-----------------------------------------------------------------
Comments