Incubus - Follow Chords & Tabs

 

Follow Chords & Tabs

Incubus Chords & Tabs

Version: 3 Type: Tab 0 ratings
1 star 2 stars 3 stars 4 stars 5 stars
comments

Follow Tab

Incubus
Follow
From Halo 2
tabbed by luke(vaportraill@excite.com)

e--5-------------------|
B--5-------------------|
G--2-------------------|fiddle with these notes individually until the
D----------------------|drums kick in.
A----------------------|
E----------------------|


Main riff

I found this riff is easier for me starting with upstrokes
and when you switch to the second measure, start with upstrokes
it seems a little contradicting at first, but it works for me
     1  +  2  +  3  +  4  +  5  +  6  +  7  +  8  +  9  +
---|---------------------------------------------------------|
-9-|---------------------------------------------------------|
-/-|-------------------------------------------12------------|
-8-|----------12----------15----14~~~-12-14-15----15-14-12---|
---|-12-14-15----15-14-12----12------------------------------|
---|---------------------------------------------------------|

     1  +  2  +  3  +  4  +  5  +  6  +  7  +  8  +  9  +  10 +  11 +
---|-----------------------------------------------------------------------|
-11|-----------------------------------------------------------------------|
-/-|-------------------------------------------13----------14-12-----------|
-8-|----------12----------15----14~~~-12-14-15----15-14-12-------15-14-----|
---|-12-14-15----15-14-12----12--------------------------------------------|
---|-----------------------------------------------------------------------|


Verse
listen to the song for the strumming pattern, it's a little strange
---|---5-------|-4------|-5-----|-5------4------|
-4-|---5-------|-6------|-5-----|-5------5------|
-/-|---5-------|-5------|-5-----|-5------4------|
-4-|---7-------|--------|-------|-7------6------|
---|-----------|--------|-------|---------------|
---|-----------|--------|-------|---------------|
[ Tab from: http://www.guitartabs.cc/tabs/i/incubus/follow_tab_ver_3.html ]
Chorus
Again, listen to the song for the strumming
---|-------------------------------------|
-7-|-------------------------------------|
-/-|--2----------------------------------|
-8-|--2----------------------------------|
---|--0----------------------------------|
---|-------------------------------------|


---|-------------------------------------|
-7-|-------------------------------------|
-/-|--5----------------------------------|
-8-|--5----------------------------------|
---|--3----------------------------------|
---|-------------------------------------|


---|--------------------------------------|
-7-|--------------------------------------|
-/-|--2-----------------------------------|
-8-|--2-----------------------------------|
---|--0-----------------------------------|
---|--------------------------------------|


---|--------------------------------------|
-4-|--------------------------------------|
-/-|--------------------------------------|
-4-|--3-------------------2---------------|
---|--3-------------------2---------------|
---|--1-------------------0---------------|
    (at this part switch chords at the "and" after 3)

---|-------------------------------------|
-7-|-------------------------------------|
-/-|--2----------------------------------|
-8-|--2----------------------------------|
---|--0----------------------------------|
---|-------------------------------------|


---|-------------------------------------|
-7-|-------------------------------------|
-/-|--5----------------------------------|
-8-|--5----------------------------------|
---|--3----------------------------------|
---|-------------------------------------|

---|------------------|
-7-|------------------|
-/-|------------------|
-8-|--3---------------|
---|--3---------------|
---|--1---------------|

---|----------------------|
-4-|----------------------|
-/-|----------------------|
-4-|--2-------------------|
---|--2-------------------|
---|--0-------------------|
This is it.  Just listen to the song for all the changes.
Comments