Incubus - Favorite Things Chords & Tabs

 

Favorite Things Chords & Tabs

Incubus Chords & Tabs

Version: 3 Type: Tab 0 ratings
1 star 2 stars 3 stars 4 stars 5 stars
comments

Favorite Things Tab

   
Band: Incubus
Song: Favorite Things
Album: S.C.I.E.N.C.E.
Transcribed by: Reinaldo Gonzalez
Efects: Delay, Phaser, Distortion

Standard Tuning

Intro: (Distortion, delay)
e--9---9-9-9-9----------------------9---9-9-9-9--------------------|
B--x---x-8-8-8----------------------x---x-8-8-8--------------------|
G--6---6-6-6-6----------------------6---6-6-6-6--------------------|
D----------------7-7-7--xxxxx--------------------8-8-8-8-8--xxxxx--|
A----------------7-7-7--xxxxx--------------------8-8-8-8-8--xxxxx--|  
E----------------5-5-5--xxxxx--------------------6-6-6-6-6--xxxxx--|

And them! 
e--9---9-9-9-9----------------------9---9-9-9-9-----------------|
B--x---x-8-8-8----------------------x---x-8-8-8-----------------|
G--6---6-6-6-6----------------------6---6-6-6-6-------101010----|
D----------------7-7-7--xxxxx---------------------7/8-101010----|
A----------------7-7-7--xxxxx---------------------7/8--8-8-8----|  
E----------------5-5-5--xxxxx---------------------5/6-----------|

Verse 1: (Delay+phaser+distortion)
e----------------24///////-----|
B------------------------------|   
G---3///////-------------------|   
D---5///////-------------------|   
A---4///////-------------------| X3
E------------------------------|   

e--------------------------------|   
B--------------------------------|   
G---3///////------101010---------|   
D---5///////---8/-101010---------|   
A---4///////---8/--8-8-8---------|   
E--------------6/----------------|   

And them!
e------------------------------------|
B------------------------------------|    
G------------------------------------|    
D------------------------------------|    
A----------7-7-8-8---------9-9-8-8---|  X7
E--5-5-5-5---------6-6-6-6-----------|    

e--------------|   
B--------------|
G--------------|
D--7/88--------|
A--7/88--------|
E--5/66--------|

Interlude: (Distortion, delay)
e--9---9-9-9-9----------------------9---9-9-9-9-----------------|
B--x---x-8-8-8----------------------x---x-8-8-8-----------------|
G--6---6-6-6-6----------------------6---6-6-6-6-------101010----|
D----------------7-7-7--xxxxx---------------------7/8-101010----|
A----------------7-7-7--xxxxx---------------------7/8--8-8-8----|  
E----------------5-5-5--xxxxx---------------------5/6-----------|

Verse 2: (Delay+phaser+distortion)
e----------------24///////-----|   
B------------------------------|   
G---3///////-------------------|   
D---5///////-------------------|   
A---4///////-------------------| X3
E------------------------------|   
[ Tab from: http://www.guitartabs.cc/tabs/i/incubus/favorite_things_tab_ver_3.html ]
e--------------------------------|   
B--------------------------------|   
G---3///////------101010---------|   
D---5///////---8/-101010---------|   
A---4///////---8/--8-8-8---------|   
E--------------6/----------------|   

And them! (Distortion)
e------------------------------------|    
B------------------------------------|    
G------------------------------------|    
D------------------------------------|    
A----------7-7-8-8---------9-9-8-8---|  X7
E--5-5-5-5---------6-6-6-6-----------|    

e--------------|   
B--------------|
G--------------|
D--7/88--------|
A--7/88--------|
E--5/66--------|

Chorus: (Distortion)
e------------------------------------|
B------------------------------------|
G---------10-10----------101010------|
D---7-----10-10----7/8-8-101010------|
A---7------8--8----7/8-8--8-8-8------| X4
E---5--------------5/6-6-------------|

Interlude 2: (Delay+distortion)
e--------------------------------------|
B--------------------------------------|
G--------------------------------------|
D----7///----x6///---x5///----x3///----|
A----7///----x4///---x3///----x1///----|
E----5///----x0///---x0///----x0///----|

And them! (Distortion, delay)
e--9---9-9-9-9----------------------9---9-9-9-9--------------------|
B--x---x-8-8-8----------------------x---x-8-8-8--------------------|
G--6---6-6-6-6----------------------6---6-6-6-6--------------------|
D----------------7-7-7--xxxxx--------------------8-8-8-8-8--xxxxx--|
A----------------7-7-7--xxxxx--------------------8-8-8-8-8--xxxxx--| X2 
E----------------5-5-5--xxxxx--------------------6-6-6-6-6--xxxxx--|
 
e--9---9-9-9-9----------------------9---9-9-9-9-----------------|
B--x---x-8-8-8----------------------x---x-8-8-8-----------------|
G--6---6-6-6-6----------------------6---6-6-6-6-------101010----|
D----------------7-7-7--xxxxx---------------------7/8-101010----|
A----------------7-7-7--xxxxx---------------------7/8--8-8-8----|  
E----------------5-5-5--xxxxx---------------------5/6-----------|

Pre-Outro: (Distortion)
e------------------------------------|    
B------------------------------------|    
G------------------------------------|    
D------------------------------------|    
A----------7-7-8-8---------9-9-8-8---|  X7
E--5-5-5-5---------6-6-6-6-----------|    

e--------------|   
B--------------|
G--------------|
D--7/88--------|
A--7/88--------|
E--5/66--------|

Outro: (Distortion)
e------------------------------------|
B------------------------------------|
G---------10-10----------101010------|
D---7-----10-10----7/8-8-101010------|
A---7------8--8----7/8-8--8-8-8------| X7
E---5--------------5/6-6-------------|

And them!
e------------------------|
B------------------------|
G---------10-10----------|
D---7-----10-10----7///--|
A---7------8--8----7///--| 
E---5--------------5///--|

Chers! good song!!!
Comments