Incubus - Favorite Things Chords & Tabs

 

Favorite Things Chords & Tabs

Incubus Chords & Tabs

Version: 2 Type: Bass Tab 0 ratings
1 star 2 stars 3 stars 4 stars 5 stars
comments

Favorite Things Bass Tab

   
Song: Favorite Things
Artist: Incubus
Album: S.C.I.E.N.C.E.
Tabbed by Spooney (spoonbass@users.basstabarchive.com)

The fast break was pretty hard to tab, but the rest seems good. If you have
any corrections, questions or whatever, e-mail me.

Main riff
G|-----------------------------------------------------------|
D|-----------------------------------------------------------|
A|-0---0-1---1------------------0---0-1---1------------------|
E|---0-----1---5555-5-0-1-2-3-4---0-----1---6666-6-0-1-2-3-4-|
[ Tab from: http://www.guitartabs.cc/tabs/i/incubus/favorite_things_btab_ver_2.html ]
Main riff variation
G|-----------------------------------------------------------|
D|-----------------------------------------------------------|
A|-0---0-1---1-0000-0-----------0---0-1---1-1111-1-----------|
E|---0-----1----------0-xxxx-xx---0-----1----------0-xxxx-xx-|

Fast break
G|---------------------|
D|---------------------|
A|---------------------|
E|-5555/6h7-6666h7h8p6-|

Chorus
G|------------------------|-----------------------|
D|------------------------|-----------------------|
A|------/8-88-----------8-|------/8-88------------|
E|-5-55-------5-5-6-66/---|-5-55-------5-5-6-6-66-|

Slow-down riff
G|---------------------------------------------|
D|---------------------------------------------|
A|-5---55----4---44----3---33----1---11-(hold)-|
E|---5----5----4----4----3----3----1-----------|
Comments