Incubus - Drive Chords & Tabs

 

Drive Chords & Tabs

Incubus Chords & Tabs

Version: 3 Type: Tab 8 ratings
1 star 2 stars 3 stars 4 stars 5 stars
comments

Drive Tab

Incubus - Drive 

Schmacks creation.
this tab is ABSOLUTELY correct. there are many poor imitations 
floating around but this tab is the only one that i am prepared to 
give a money back guarantee if its not right. 
enjoy this cracking song


the first bit. also the verse and chorus
e------0-0---------------0-0-----------------------------
B------8-8-----7-7-------5-5-----------------------------
G------0-0-----7-7-------4-4------0-0-0------------------
D------9-9-----5-5-----5-5-5------5---5------------------
A---7--7-7---7-7-7---3---3-3-----------------------------
E-0----------------------------5--5----------------------
 
pre-chorus                                                                   
e----0--0--0--0---0--0--0--0---0--0--0--0---0--0--0--0---
B----1--1--1--1---2--2--2--2---3--3--3--3---2--2--2--2---
G----0--0--0--0---0--0--0--0---0--0--0--0---2--2--2--2---
D----2--2--2--2---2--2--2--2---2--2--2--2---2--2--2--2---
A--3-3--3--3--3---0--0--0--0---3--3--3--3---0--0--0--0---
E--------------------------------------------------------
[ Tab from: http://www.guitartabs.cc/tabs/i/incubus/drive_tab_ver_3.html ]
and the solo... (a * means let note ring)
e-------------------------------------------------------
B----------12-10-8*-10---------------------8-10-12-12---
G-9-9-9-9*-------------7*-9-9-7*-9-9*-9-9*--------------
D-------------------------------------------------------
A-------------------------------------------------------
E-------------------------------------------------------

e----10-------------------------------------------------
B-10----12-10-12------------10*-10-8-8------------------
G----------------9\7*-9-9-7------------9-9-7------------
D--------------------------------------------9-7-7/9----
A-------------------------------------------------------
E-------------------------------------------------------

throughout the song in parts  such as the chorus and the
solo  you will hear this bit.
e-12----12----12----12----------------------------------
B----12----12----12----12-------------------------------
G-------------------------------------------------------
D-------------------------------------------------------
A-------------------------------------------------------
E-------------------------------------------------------

and thats it.

if you want to email me - frog_bollocks@hotmail.com

"bob had bitch tits, he loved me because he thought that i had 
had my testicles removed as well" -fight club
Comments