Incubus - Drive Live Chords & Tabs

 

Drive Live Chords & Tabs

Incubus Chords & Tabs

Version: 2 Type: Tab 0 ratings
1 star 2 stars 3 stars 4 stars 5 stars
comments

Drive Live Tab

   
song title: drive
artist: incubus
album: make yourself

tabbed by: Arvil Isaiah G.de Villa
e-mail: hiskoolstudes@yahoo.com

this is the first time i’ve written a tab so excuse my mistakes

i've seen tabs of this song and i figured it was easy however, most tabs
don't sound like the real thing. i've read alot of tabs and watch a video
of incubus playing the song live. i've think i got a loyal version  (did 
i said that it is also easy) of the song, i'm not mike einziger to be able 
to play it accurately like the "man" does.i also believe that mike does make
variations in each live performance.he’s probably one of the most talented 
guitarists today.

here it is:
INTRO/VERSE/CHORUS
----------------------------------------------------
-----8-8-------7--------------0--0-------0---
-----9-9-------7--------------4--4-------4---
---9-9-9-------0-----------2--2--2-------2---
-7---7-7----0--0---------3----3--3----0--0---
----------------------------------------------------

PRE-CHORUS
-----------------------------------------------------
------0--0--0--------0--------2--2--2-----2-----
------4--4--4--------4--------0--0--0-----0-----
------2--2--2--------2------- 2--2--2-----2-----
---3--3--3--3----3---3-----0--0--0--0--0--0-----
-----------------------------------------------------
  "it’s driven me 	        before.......
	
-----------------------------------------------------
-----3--3--3-----3---------------2--2--2----2--
-----0--0--0-----0---------------0--0--0----0--
-----2--2--2-----2---------------2--2--2----2--
--3--3--3--3--3--3------------0--0--0--0--0-0--
-----------------------------------------------------
  vague....			haunting mass......
[ Tab from: http://www.guitartabs.cc/tabs/i/incubus/drive_live_tab_ver_2.html ]
the pre-chorus is played 2x but on the 2nd time around just hit the
open 5th string and  strum the chord once.

the solo:
i derived the solo from various tabs but modified it to what i think
(at least that’s what my ears tell me) is right. mike einziger adds his
personal style to the guitar solo. that’s what i did and it sounds quite
right.

legend: []-optional note (it won't matter if you don't hit it,still sounds
                          great!!!)
	h-hammer
	b-bend 

---------------7--5--3--5-----------------------------------------
--3/5--5-5---[7]----------3h5--3--5/7--5b---5-----5--------------
-----------------------------------------------7/9b----7/9b------
-----------------------------------------------------------------
-----------------------------------------------------------------
-----------------------------------------------------------------

--3--5---7-7--5---10---7---5---7-------------------0-------------
-----------------------------------5--3--3----5--5-3-------------
---------------------------------------------------4-------------
---------------------------------------------------0-------------
-----------------------------------------------------------------
-----------------------------------------------------------------


-----5--5---3--3-0-----------------------------------------------
------------------------5---3------------------------------------
-----------------------------------4---2---2h4--2---4b-----------
-----------------------------------------------------------------
-----------------------------------------------------------------
-----------------------------------------------------------------

for the end part play the first two chords of the pre-chorus

if there’s any comments, suggestions or violent reaction generated by this
tab just e-mail me. the address is on the upper part of the page.
Comments