Incubus - Drive Acoustic Chords & Tabs

 

Drive Acoustic Chords & Tabs

Incubus Chords & Tabs

Version: 1 Type: Tab 0 ratings
1 star 2 stars 3 stars 4 stars 5 stars
comments

Drive Acoustic Tab

#----------------------------------PLEASE NOTE--------------------------------#
#This file is the author's own work and represents their interpretation of the#
#song. You may only use this file for private study, scholarship, or research.#
#-----------------------------------------------------------------------------#
#-- File created with Instab - http://www.pconline.com/~smcarey/instab.html --#
#-----------------------------------------------------------------------------#

Author/Artist: Incubus
Title: Drive
Transcribed by: Jordan
Email: gordan_00@hotmail.com
Note: -  listen to the song for the rythm and song order. also u can get the solo off another
tab cos everyone has it and i dont wanna copy it or anything!

im positive its right but hey everyone has there opinions i spose, so let me know

------0-0-0---x-------------------------x-------------------------------------
------8-8-8---x-----7-7---------5-5-5---x-----5-5-----------------------------
------0-0-0---x-----7-7---------4-4-4---x-----0-0-----------------------------
------9-9-9---x-----5-5------5--5-5-5---x-----5-5-----------------------------
----7-7-7-7---x---7-7-7----3----3-3-3---x-----0-0-----------------------------
---0----------x-------------------------x---5-5-5-----------------------------
  VERSE and CHORUS                                                            
[ Tab from: http://www.guitartabs.cc/tabs/i/incubus/drive_acoustic_tab.html ]
------------------------------------------------------------------------------
-------5-5-5-5-5-5-------2-2-2-2-2-2-------2-2-2-2-2-2------2-2-2-2-2-2-------
-------4-4-4-4-4-4-------0-0-0-0-0-0-------0-0-0-0-0-0------2-2-2-2-2-2-------
-----5-5-5-5-5-5-5-----2-2-2-2-2-2-2-----2-2-2-2-2-2-2----2-2-2-2-2-2-2-------
---3---3-3-3-3-3-3---0---0-0-0-0-0-0---3---3-3-3-3-3-3--0---0-0-0-0-0-0-------
------------------------------------------------------------------------------
                                                                              

---------------------------------------------------------x--------------------
------5-5-5-5-5-5-------2-2-2-2-2-2-------2--2-2-2-2-2---x----2---------------
------4-4-4-4-4-4-------0-0-0-0-0-0-------0--0-0-0-0-0---x----2---------------
----5-5-5-5-5-5-5-----2-2-2-2-2-2-2-----2-2--2-2-2-2-2---x----2---------------
--3---3-3-3-3-3-3---0---0-0-0-0-0-0---3---3--3-3-3-3-3---x--0-0---------------
---------------------------------------------------------x--------------------
       PRE-CHORUS    * let last chord ring                                    

------------------------------------------------------------------------------
-------5-5-5-5-5---x--5-------------------------------------------------------
-------4-4-4-4-4---x--0-------------------------------------------------------
-------5-5-5-5-5---x--5-------------------------------------------------------
-----3-3-3-3-3-3---x--0-------------------------------------------------------
----------------------5-------------------------------------------------------
end with this

Comments