Incubus - Deep Inside Chords & Tabs

 

Deep Inside Chords & Tabs

Incubus Chords & Tabs

Version: 1 Type: Bass Tab 0 ratings
1 star 2 stars 3 stars 4 stars 5 stars
comments

Deep Inside Bass Tab

   
Song: Deep Inside
Artist: Incubus
Album: S.C.I.E.N.C.E
Tabbed by Spooney (spoonbass@users.basstabarchive.com)

I came across the “Deep Inside” tab by Cavan Papp, but a couple of details
were off, so I re-tabbed it all. I also put in my interpretation of every
fill Alex (Dirk Lance) puts in on the various riffs through the song, so 
it took quite a while. I’m not entirely sure of the heavy parts or the
interludes – there are some notes for a possible 5-string version – but if
you have a better one please tell me. Enjoy!

Main Riff 					 Variation (Drums enter)
G|-----|----------------------------|------------------------------| 
D|-----|----0-2-0-2-0---------------|----0-2-0-2-0-----------------| 
A|-14/2|-2-------------2--0-2-0-2-0-|-2-------------2--0-2-0-0h1p0-|
E|-----|----------------------------|------------------------------|

Main with variations 				
G|------------------------------|------------------2/4-22-4p2---| 
D|----0-2-0-2-0-----------------|----0-2-0-2-0----------------2-| 
A|-2-------------2--0-2-0-0h1p0-|-2-------------2---------------|
E|------------------------------|-------------------------------|

Main Riff leading into verse				
G|------------------------------|-----------------------------| 
D|----0-2-0-2-0-----------------|----0-2-0-2-0----------------| 
A|-2-------------2--0-2-0-2-0h1-|-2-------------2---------012-|
E|------------------------------|------------------0h1-2x-----|

3 o’clock Verse
G|---------------------------------------------------------| 
D|-------------------------------------2h3h4-2-0-----------| 
A|-5p2-22-2-2—-5p2-22-2-2—-5p2-22-2-2-----------—2---0-1-2-|
E|-------------------------------------------------2-------|

G|-----------------------------2-4---------------------------------| 
D|-----------------------------------------------------------------| 
A|-5p2-22-2-2—0h25\-5p2-22-2-2—-----5p2-22-2-20h1h2p1p0—5p2-22-2-2-|
E|-----------------------------------------------------------------|

Break (heavy part)
G|---------------------|
D|---------------------|
A|-2222-4444-0000-1111-|
E|---------------------|

Main with variations 				
G|------------------------------|------------------1/22-4p2---| 
D|----0-2002p1p0----------------|----0-2-0-200--------------2-| 
A|-2-------------2--0-2-0-2-0h1-|-2-------------2-------------|
E|------------------------------|-----------------------------|

Main leading into interlude 1				
G|---------------------------|------------------------2-4-| 
D|----0-2-0-200--------------|----0-2-0-2-0-----2h3-4-----| 
A|-2-------------2--0-200200-|-2-------------2------------|
E|---------------------------|----------------------------|

Interlude 1
G|---------------------------------------------|
D|-2-4-----------------------------------------|
A|-----7--5-7--2-4--------------------1-(hold)-|
E|-----------------7--5-7--2-5-2--0-5----------|

G|-----------------------------------|
D|-2-4-------------------------------|
A|-----7--5-7--2-4-------------------|
E|-----------------7--5-7--2-5-2-0-5-|

End with:
G|----------------------------------|
D|----------------------------------|
A|-5p2-0-------0-2-0----------------|
E|-------2-0-2-------02-2-13-3-4-55-|

4 o’clock Verse
G|---------------------------------------------------------| 
D|-------------------------------------2h3h4-2-0-----------| 
A|-5p2-22-2-2—-5p2-22-2-2—-5p2-22-2-2-----------—2---0-1-2-|
E|-------------------------------------------------2-------|
[ Tab from: http://www.guitartabs.cc/tabs/i/incubus/deep_inside_btab.html ]
G|-----------------------------2-4---------------------------------| 
D|-----------------------------------------------------------------|
A|-5p2-22-2-2—0h25\-5p2-22-2-2—-----5p2-22-2-20h1h2p1h2—5p2-22-2-2-|
E|-----------------------------------------------------------------|

Break (heavy part)
G|---------------------|
D|---------------------|
A|-2222-4444-0000-1111-|
E|---------------------|

Main with variations 				
G|-------------------------------|------------------22-3-4p2---| 
D|----0-2002p1p0-----------------|----0-2-0-220--------------2-| 
A|-2-------------2--0-2-02p1p0h1-|-2-------------2-------------|
E|-------------------------------|-----------------------------|

Main into pre-interlude main riff 			
G|----------------------------|---------------------------| 
D|----0-2-0-2-0---------------|----0-2-0-2-0--------------| 
A|-2-------------2--0-2-0-2-0-|-2-------------2-----------|
E|----------------------------|------------------0h2x-345-|

Pre-interlude main riff 				
G|----------------------------|-----------------------------| 
D|----0-2-0-2-0---------------|----0-2-0-2-0----------------| 
A|-2-------------2--0-2-0-2-0-|-2-------------2—1h2p0-1h2p0-|
E|----------------------------|-----------------------------|

Main leading into interlude 2 				
G|----------------------------|----------------------------| 
D|----0-2-0-2-0---------------|----0-2-0-2-0---------------| 
A|-2-------------2—-002p0-2p0-|-2-------------2—(hold)-----|
E|----------------------------|----------------------------|

Interlude 2
G|------------------------------------------------|
D|-2-4--------------------------------------------|
A|-----7--5-7--2-4-----------4-2---4-2---5-(hold)-|
E|-----------------7--5-7--2-----5-----5----------|

G|------------------------------------------------|
D|-2-4--------------------------------------------|
A|-----7--5-7--2-4-------------------2-4-5-(hold)-|
E|-----------------7--5-7--2-2-2-5-2--------------|

5 o’clock Verse
G|--------------------------------------------------------| 
D|--------------------------------------------------------| 
A|-5p2-22-2-2—-5p2-22-2-2—-5p2-22-2-2-------h2-22-2-2-552-|
E|-------------------------------------3h4h5--------------|

G|--------------------------------------------------------| 
D|--------------------------------------------------------| 
A|-5p2-22-2-2—5\-5p2-2-5p2-2—5\-5p2-22-2-2—---------------|
E|-----------------------------------------0/-------------|

Heavy Part					 
G|-----------------------------------| 
D|-------------0----------------1----| 
A|-2-2-2-2-222------2-2-2-2-222------| 
E|-----------------------------------| 
						   
with 5-string play this:
G|-----------------------------------|
D|-----------------------------------|
A|-------------5----------------6----|
E|-7-7-7-7-777------7-7-7-7-777------|
B|-0-0-0-0-000------0-0-0-0-000------|

Try also:
G|------------------|
D|------------------|
A|-2-2-2-2-222-3----|
E|------------------|

Final break (heavy part)
G|---------------------|
D|---------------------|
A|-2222-4444-0000-1111-|
E|---------------------|

Back to Main for guitar solo and end:
This part is full of variations on Alex’s part. Give the guy some credit,
and come up with your own fills etc. If there’s enough demand I’ll put them
up, but for now it’s cool. Just remember to finish on:
G|----------------------------------|
D|----------------------------------|
A|-5p2-0-------0-2-0----------------|
E|-------2-0-2-------02-2-13-3-4-55-|and you’re done!

Comments