Incubus - Crowded Elevator Chords & Tabs

 

Crowded Elevator Chords & Tabs

Incubus Chords & Tabs

Version: 1 Type: Tab 0 ratings
1 star 2 stars 3 stars 4 stars 5 stars
comments

Crowded Elevator Tab

#----------------------------------PLEASE NOTE--------------------------------#
#This file is the author's own work and represents their interpretation of the#
#song. You may only use this file for private study, scholarship, or research.#
#-----------------------------------------------------------------------------#
#-- File created with Instab - http://www.pconline.com/~smcarey/instab.html --#
#-----------------------------------------------------------------------------#

Author/Artist: incubus
Title: crowded Elivator
Album: pardon me single
Transcribed by: Roland James
Email: Rolandajames@hotmail.com

this is a cool song and fun to play. if its wrong then 
please e-mail me to tell me how it goes. Have fun!

-0-0----0------4-4-----|-0-0----0--------4-4------|-0-----0-4b-----0-4b-4b-0--
------5---7b-0-----5-5-|------5----7b-0-------5-5-|-2-7-0------7-0------------
-----------------------|--------------------------|---------------------------
-----------------------|--------------------------|---------------------------
-----------------------|--------------------------|---------------------------
-----------------------|--------------------------|---------------------------
                                                                              

-4b0------0-4b-----0-4b-4b-0-4b0------0-4b-----0-4b-4b-0-4b3-------44----44---
------7-0------7-0----------------7-0------7-0-------------5-77777----55------
-----------------------------------------------------------5------------------
-----------------------------------------------------------4-99999------------
------------------------------------------------------------------------------
------------------------------------------------------------------------------
            This is the verse you playit eight times                          

----0---|-|-0-0---0------4-4-----|--------------------------------------------
-55-2---|-|-----5---7b-0-----5-5-|--------------------------------------------
----2---|-|----------------------|--------------------------------------------
----1---|-|----------------------|--------------------------------------------
--------|-|----------------------|--------------------------------------------
--------|-|----------------------|--------------------------------------------
 Play the first bit of the build up 3 times then play the lead part           
[ Tab from: http://www.guitartabs.cc/tabs/i/incubus/crowded_elevator_tab.html ]
------8--8-8---7-77---5-5--|-0-0-----0-----|3-3-----3-------------------------
-7-77-10-1010--9-99---7-7--|-----5-5---5-7-|----5-5---5-7---------------------
-9-99-10-1010--9-99---7-7--|---------------|----------------------------------
-9-99-9--9-9---8-88---6-6--|---------------|----------------------------------
-8-88----------------------|---------------|----------------------------------
---------------------------|---------------|----------------------------------
 this is the chours the first bit is played twice and then finish on an e     

-0--------0-0------0------3--------3-3-----3----|-0---------------------------
-2-55-3-7------5-5---5-7--5--777777----5-5---5-7|-2---------------------------
-2---\-\------------------5---------------------|-2---------------------------
-1-77-5-9-----------------6--999999-------------|-1---------------------------
------------------------------------------------|-----------------------------
------------------------------------------------|-----------------------------
 then the verse and the build up then the chorusthen hold an E for 4 bars     

----------0---|---------------------------------------------------------------
----------2---|---------------------------------------------------------------
----------2---|---------------------------------------------------------------
----------1---|---------------------------------------------------------------
--------------|---------------------------------------------------------------
--------------|---------------------------------------------------------------
 this is the bit after the 4 bars its played 4 times                          

-------8---------------11-------|---------------------------------------------
-7------------10----------------|---------------------------------------------
-----8-----8--------11-------11-|---------------------------------------------
---9-----9-------12-------12----|---------------------------------------------
--------------------------------|---------------------------------------------
--------------------------------|---------------------------------------------
 then its basicly the build up but without the leady bit at the end played 4  

-------8--8--8--7-77-5-5--|---------------------------------------------------
-7-77--10-10-10-9-99-7-7--|---------------------------------------------------
-9-99--10-10-10-9-99-7-7--|---------------------------------------------------
-9-99--9--9--9--8-88-6-6--|---------------------------------------------------
-8-88---------------------|---------------------------------------------------
--------------------------|---------------------------------------------------
 Then its the chorus then finish with the intro missing th first 2 bars       

Comments