Incubus - Consequence Chords & Tabs

 

Consequence Chords & Tabs

Incubus Chords & Tabs

Version: 4 Type: Tab 0 ratings
1 star 2 stars 3 stars 4 stars 5 stars
comments

Consequence Tab

-------------------------------------------------------------------------------
			     Consequence - Incubus
-------------------------------------------------------------------------------
Tabbed by:TheJoeyH Show
Email:AlabamaFan34@yahoo.com

Tuning:Standard
Intro/Riff 1
e|-----------------------------------------------------------|
B|---------------0--------0------------------0----0---0------|
G|-----------13-----------13\-------------8-------8\--7------|
D|--------0---------------0------------0----------0---0------|
A|----11------------------11\-------6-------------6\--5------|
E|-12---------------------12\----7----------------7\--6------|

e|-------------------------------------------------------------|
B|-0--------------0-----0--------------0-------------------0-0-|
G|-7/----------13-------13\----------8---8-----------------4-4-|
D|-0---------0----------0----------0-----------------0-----0-0-|
A|-5/-----11------------11\------6----------------5--------2-2-|
E|-6/--12---------------12\----7------------5--6--------5--3-3-|

...Better clear the air before you son becomes a man...
and
...You better think fast, think fast...
e|----------------------0---0-0-0---0-0-0---0-0-0---0-0----|
B|---0----0-0-0---0-----0---0-0-0---0-0-0---0-0-0---0-0----|
G|---7----7-7-4---4-----1---1-1-1---1-1-1---1-1-1---1-1----|
D|---0----0-0-0---0-----2---2-2-2---2-2-2---2-2-2---2-2----|
A|-4-5----5-5-2---2-----2---2-2-2---2-2-2---2-2-2---2-2----|
E|-5-6----6-6-3---3-----0---0-0-0---0-0-0---0-0-0---0-0----|

e|-7---7-7-7---7-7--6---6-6--3---3-3---------------------------|
B|-7---7-7-7---7-7--6---6-6--3---3-3---------------------------|
G|-8---8-8-8---8-8--7---7-7--4---4-4---------------------------|
D|-9---9-9-9---9-9--8---8-8--5---5-5---------------------------|
A|-9---9-9-9---9-9--8---8-8--5---5-5---------------------------|
E|-7---7-7-7---7-7--6---6-6--3---3-3---------------------------|
[ Tab from: http://www.guitartabs.cc/tabs/i/incubus/consequence_tab_ver_4.html ]
All Mike does is play this upcoming riff 3 or 4 times in a row during the bridge part,
ya'll should be able to figure it out.
...for consequence is a bigger word than you think...
and 
...it's bigger thannnn you or me .. you or me...
e|---------------------------------------------------|
B|---------------------------------------------------|
G|-9---9-9-9--7---7----7-7-7-7-----------------------|
D|-9---9-9-9--8---7----7-7-7-7---6-------------------|
A|-7---7-7-7--8---5----5-5-5-5---6-------------------|
E|-7---7-7-7--6---5----5-5-5-5---4-------------------|

This comes after "you orrrr me .. YOU OR ME" and then there is this riff plus a solo
which is a little confusing to me..but here it is.

e|-7-7----7-7---7-7----7-7----6-6---6-6---6-6----3-3-3---------------|
B|-7-7----7-7---7-7----7-7----6-6---6-6---6-6----3-3-3---------------|
G|-8-8----8-8---8-8----8-8----7-7---7-7---7-7----4-4-4---------------|
D|-9-9----9-9---9-9----9-9----8-8---8-8---8-8----5-5-5---------------|
A|-9-9----9-9---9-9----9-9----8-8---8-8---8-8----5-5-5---------------|
E|-7-7----7-7---7-7----7-7----6-6---6-6---6-6----3-3-3---------------|


And the solo ... in which he uses a flanger, this solo you gotta play around with ...
e|-------------------------------------------------------|
B|--9----------------------------------------------------|
G|--11----------------------------------(11)-------------|
D|-------------------------------------------------------|
A|-------------------------------------------------------|
E|-------------------------------------------------------|

e|-------------------------------------------------------|
B|-------------------------------------------------------|
G|--(11)------------------16---------(16)------(16)------|
D|-------------------------------------------------------|
A|-------------------------------------------------------|
E|-------------------------------------------------------|

The Outro is like this, when he ends with "you or meee"

e|--------------------------------------|
B|--------------------------------------|
G|-9---9-9-9--7----7----7-7-7-7---------|
D|-9---9-9-9--8----7----7-7-7-7---------|
A|-7---7-7-7--8----5----5-5-5-5---6-----|
E|-7---7-7-7--6----5----5-5-5-5---4-----|

Ok that should be totally correct, I've seen Mike do it andddd that's how it goes. Ya'll
should be able to figure out the rhythm by listening to the song. The other tabs on here
are close, but not as correct as this one...RATE IT PLEASE! Thanks.
Comments