Incubus - Consequence Chords & Tabs

 

Consequence Chords & Tabs

Incubus Chords & Tabs

Version: 3 Type: Tab 0 ratings
1 star 2 stars 3 stars 4 stars 5 stars
comments

Consequence Tab

tabbed by:Staind_14s
standard tuning (EADGBe)

Intro and verse riff
-------------------------------------------------------------------------
------------0--0---------0--0-0-0------------0---0---------0-------------
---------13---13/------8----8/7-7/--------13----13/------8---0-----------
-------0-------0-----0------0-0-0-------0--------0-----0-------------0---
----11--------11/--6--------6/5-5/---11---------11/--6-------------5-----
-12-----------12/7----------7/6-6/12------------12/7-----------5-6-----0-
riff continued
-----
-0-0-
-4-4/
-0-0-
-2-2/
-3-3/

                    ...before your son becomes a man...
--------------------------------------------------- 000-000-000-000-00-
------------0--0---------0---0-0---0---0----------0 000-000-000-000-00-
---------13---13/------8---0-6/8---8---8/---------4 111-111-111-111-11/
-------0-------0-----0-------0-0---0---0----------0 222-222-222-222-22/
----11--------11/--6---------4/6---6---6/---------2 222-222-222-222-22/
-12-----------12/7-----------5/7---7---7/---------3 000-000-000-000-00-
continued...
7-7-7-7/6-6-6/3
7-7-7-7/6-6-6/3
8-8-8-8/7-7-7/4
9-9-9-9/8-8-8/5
9-9-9-9/8-8-8/5
7-7-7-7/6-6-6/3

verse-play the same riff all over again
                        ...one of the walking dead...
---------------------------------------------------
------------0--0---------0---0-0---0---0----------0
---------13---13/------8---0-6/8---8---8/---------4
-------0-------0-----0-------0-0---0---0----------0
----11--------11/--6---------4/6---6---6/---------2
-12-----------12/7-----------5/7---7---7/---------3

...you better think fast...
000-000-000-000-00-7-7-7-7/6-6-6-6-6-
000-000-000-000-00-7-7-7-7/6-6-6-6-6-
111-111-111-111-11/8-8-8-8/7-7-7-7-7-
222-222-222-222-22/9-9-9-9/8-8-8-8-8-
222-222-222-222-22/9-9-9-9/8-8-8-8-8-
000-000-000-000-00-7-7-7-7/7-7-7-7-7-

000-000-000-000-00-7-7-7-7/6-6-6/3
000-000-000-000-00-7-7-7-7/6-6-6/3
111-111-111-111-11/8-8-8-8/7-7-7/4
222-222-222-222-22/9-9-9-9/8-8-8/5
222-222-222-222-22/9-9-9-9/8-8-8/5
000-000-000-000-00/7-7-7-7/6-6-6/3

000-000-000-000-00-7-7-7-7/6-6-6-6-6-
000-000-000-000-00-7-7-7-7/6-6-6-6-6-
111-111-111-111-11/8-8-8-8/7-7-7-7-7-
222-222-222-222-22/9-9-9-9/8-8-8-8-8-
222-222-222-222-22/9-9-9-9/8-8-8-8-8-
000-000-000-000-00-7-7-7-7/7-7-7-7-7-
[ Tab from: http://www.guitartabs.cc/tabs/i/incubus/consequence_tab_ver_3.html ]
000-000-000-000-00-7-7-7-7/6-6-6/3
000-000-000-000-00-7-7-7-7/6-6-6/3
111-111-111-111-11/8-8-8-8/7-7-7/4
222-222-222-222-22/9-9-9-9/8-8-8/5
222-222-222-222-22/9-9-9-9/8-8-8/5
000-000-000-000-00/7-7-7-7/6-6-6/3

        ...bigger than...
----------------
----------------
-9-9-9-7-7-7-7-- do this
-9-9-9-8-7-7-7-6 4 times
-7-7-7-8-5-5-5-6
-7-7-7-6-5-5-5-4

...me...
--------77-77-77-77-66-66-66-333
--------77-77-77-77-66-66-66-333
--------88-88-88-88-77-77-77-444
--------99-99-99-99-88-88-88-555
--------99-99-99-99-88-88-88-555
--------77-77-77-77-66-66-66-333

Solo
------------------------------------------------------
---9--------------------------------------------------
--11 bend 1 full step and keep for a while like that--
------------------------------------------------------
------------------------------------------------------
------------------------------------------------------

solo continued
------------------------------------------------------
------------------------------------------------------
--16 bend also 1 full step and keep it bend for awhile
------------------------------------------------------
------------------------------------------------------
------------------------------------------------------

000-000-000-000-00-7-7-7-7/6-6-6-6-6-
000-000-000-000-00-7-7-7-7/6-6-6-6-6-
111-111-111-111-11/8-8-8-8/7-7-7-7-7-
222-222-222-222-22/9-9-9-9/8-8-8-8-8-
222-222-222-222-22/9-9-9-9/8-8-8-8-8-
000-000-000-000-00-7-7-7-7/7-7-7-7-7-

000-000-000-000-00-7-7-7-7/6-6-6/3
000-000-000-000-00-7-7-7-7/6-6-6/3
111-111-111-111-11/8-8-8-8/7-7-7/4
222-222-222-222-22/9-9-9-9/8-8-8/5
222-222-222-222-22/9-9-9-9/8-8-8/5
000-000-000-000-00/7-7-7-7/6-6-6/3

000-000-000-000-00-7-7-7-7/6-6-6-6-6-
000-000-000-000-00-7-7-7-7/6-6-6-6-6-
111-111-111-111-11/8-8-8-8/7-7-7-7-7-
222-222-222-222-22/9-9-9-9/8-8-8-8-8-
222-222-222-222-22/9-9-9-9/8-8-8-8-8-
000-000-000-000-00-7-7-7-7/7-7-7-7-7-

000-000-000-000-00-7-7-7-7/6-6-6/3
000-000-000-000-00-7-7-7-7/6-6-6/3
111-111-111-111-11/8-8-8-8/7-7-7/4
222-222-222-222-22/9-9-9-9/8-8-8/5
222-222-222-222-22/9-9-9-9/8-8-8/5
000-000-000-000-00/7-7-7-7/6-6-6/3

outro
----------------
----------------
-9-9-9-7-7-7-7-- do this
-9-9-9-8-7-7-7-6 3 times
-7-7-7-8-5-5-5-6
-7-7-7-6-5-5-5-4

4th time finish it like this
----------------
----------------
-9-9-9-7-7-7-7--
-9-9-9-8-7-7-7--
-7-7-7-8-5-5-5-6
-7-7-7-6-5-5-5-4
Comments