Incubus - Circles Chords & Tabs

 

Circles Chords & Tabs

Incubus Chords & Tabs

Version: 7 Type: Tab 0 ratings
1 star 2 stars 3 stars 4 stars 5 stars
comments

Circles Tab

RaTm4ever made this tab.

Artist: INcubus
song: circles
album: morning view


InTrO...

e|---------------------------------
B|---------------------------------
G|---------------------------------       < do that 3 times
D|---------------------------------
A|-----5---------------------------
E|0--3---0--3--0--3--0--5--5--5--5-

e|----------------------------------
B|----------------------------------
G|----------------------------------
D|------------------hammer on.------
A|-----3-------3--------^^----------
E|0--3----0--3---0--0--3--5--5--5---


InTrO AgaIn...w/drums & stuff.
[ Tab from: http://www.guitartabs.cc/tabs/i/incubus/circles_tab_ver_7.html ]
e|------------0---------------------
B|3--3-x-3-3--0--4------------------
G|3--3-x-3-3--0--4------------------
D|3--3-x-3-3--0--4------------------< do that 2ice
A|3--3-x-3-3--0--4------------------
E|3--3-x-3-3--0--4------------------


e|--------------------------------------
B|--------------------------------------
G|--------------------------------------
D|--------------------------------------
A|7--7--7--7--5--5--5--5-6-6-6-6-4-4-4-4
E|7--7--7--7--5--5--5--5-6-6-6-6-4-4-4-4

e|---------------------------------------
B|---------------------------------------
G|---------------------------------------
D|8--8--5--5--5--5--5--5-----------------< 3 times
A|8--8--5--5--5--5--5--5-----------------
E|6--6--3--3--3--3--3--3-----------------

e|---------------------------------------
B|---------------------------------------
G|---------------------------------------
D|5-5-5-5-5-5-5-5------------------------
A|5-5-5-5-5-5-5-5------------------------
E|3-3-3-3-3-3-3-3------------------------

Hey.whatever it means to you.
Comments