Incubus - Circles Chords & Tabs

 

Circles Chords & Tabs

Incubus Chords & Tabs

Version: 6 Type: Tab 0 ratings
1 star 2 stars 3 stars 4 stars 5 stars
comments

Circles Tab

   
song: circles
band:incubus
album:morning view
tabbed by: shawn tobin
   shawn_tobin@hotmail.com

**This is an updated version of my previous one**
i'm fairy certain that this version is 100% accurate; 
although Mike _might_ play the bridge slightly differant. (give or take a note)

tuning:  drop-d. 
 -starts using the volume switch with an open d chord....



intro: w/dist
e-------------------------------|-----------------------------------
b-------------------------------|-----------------------------------
g-------------------------------|-----------------------------------
d----------------------5-5-5-5--|-------------------3/5-5-5--------
a-----5-------5--------3-3-3-3--|------1-----1------3/5-5-5--------
d-0-3---0--3-----3--0--5-5-5-5--|--0-3---0-3---3-0--3/5-5-5--------
                             x3


fill: little timing switch...
e-----------------------------------------------------------------
b-----------------------------------------------------------------
g-----------------------------------------------------------------
d-----------------5-------------------------5---------------------
a-0-0-x-x-0-0-x-x-3-0-0-x-x-0-0-x-x-0-0-x-x-3---------------------
d-0-0-x-x-0-0-x-x-5-0-0-x-x-0-0-x-x-0-0-x-x-5---------------------

[ Tab from: http://www.guitartabs.cc/tabs/i/incubus/circles_tab_ver_6.html ]
verse:
e----------------------|-------------------------------------------
b----------------------|-----------------------9-9-9---6-6-6-------
g---7---7-7-/-17-17-17-|-17-17-17---12-12-12---6-6-6---3-3-3-------
d---x-x-x-x-/-x--x--x--|-15-15-15---10-10-10---6-6-6---3-3-3-------
a---5-x-5-5-/-15-15-15-|-15-15-15-x-10-10-10-x-6-6-6-x-3-3-3-x-----
d-0---x----------------|-15-15-15-x-10-10-10-x-6-6-6-x-3-3-3-x-----
                     x2

fill2:
e-----------------------------------------------------------------
b-----------------------------------------------------------------
g-----------------------------------------------------------------
d-1---1-------5-5-5-5----1----1-------5-5-5-5---------------------
a-1---1--x-x--3-3-3-3----1----1--x-x--3-3-3-3---------------------
d-1---1--x-x--5-5-5-5-0--1----1--x-x--5-5-5-5---------------------
                                           x2

chorus: bend strings accordingly. 

      ^      ^      ^       ^
e--------------------------------|---------------------------------
b--------------------------------|---------------------------------
g-----7------7------7----7--5----|---------------------------------
d-----x------x------x----x--x----|--3--3-------8-8-8-8-------------
a--5--5---5--5---5--5----5--3----|--3--3--/-/--8-8-8-8-------------
d--0--0---0--0---0--0----0--0----|--3--3--/-/--8-8-8-8-------------
      

bridge: that cool high crystal-like guitar note is actually a sample, brought
        to you by kilmore's wax collection. I'm sure it can be figured out   
        on guitar, but he doesnt actually play it so i wont tab it.          

e------------------|------------------------------------------------
b------------------|------------------------------------------------
g------------3-----|------------3-----------------------------------
d--5----4----3-----|--5----4----3----3------------------------------
a--5----0----1-----|--5----0----1----1------------------------------
d--5----0----------|--5----0---------1------------------------------

     -anyways das it. I think this tab comes as close as a mach 3 razor. 

     comments? send to   shawn_tobin@hotmail.com  
Comments