Incubus - Certain Shade Of Green Chords & Tabs

 

Certain Shade Of Green Chords & Tabs

Incubus Chords & Tabs

Version: 5 Type: Tab 0 ratings
1 star 2 stars 3 stars 4 stars 5 stars
comments

Certain Shade Of Green Tab

   
Tabbed By: Scott Staley
Email: strumntheguitar@yahoo.com

Standard Tuning: EADGBE

| /  slide up
| \  slide down
| h  hammer-on
| p  pull-off
| ~  vibrato
| +  harmonic
| x  Mute note

Intro and Choruses: 
e|---------------------------x----x--------------x--------|
b|---7---7/-8-8-8/---7-7-----x----x--------------x--------|
g|---6---6/-7-7-7/---6-6-----7----7---------7----7--------|
d|---7---7/-8-8-8/---7-7-----7----7-(X5)---8-----8--------|
a|-5---5/---6-6-6/-5---5-----9----9-------8----8-8--------|
E|-------------------------7---7--7------6----6--6--------|
    

Verses:
e|9--9------9--9/--8--8/--7--5----5-----5------|
b|10--10----10-10/-9--9/--8--6---7-----6-------|
g|11----11--11-11/-10-10/-9--7--6--6--6--6-----|
d|---------------------------------------------|
a|---------------------------------------------|
E|---------------------------------------------|
[ Tab from: http://www.guitartabs.cc/tabs/i/incubus/certain_shade_of_green_tab_ver_5.html ]
Solo:
e|----------------9-8-7-5-7-5-5-----------------------------------------|
B|-----------------------------87-5-3-3-5-7-5-3---6-6-8-6-5-3-----------|
G|-----5h6-5h6----------------------------------------------------------|
D|----------------------------------------------------------------------|
A|----------------------------------------------------------------------|
E|----------------------------------------------------------------------|

e|-9--9--10--12--12--10--9--10--9--7--9--10--9--7--10--9--7--5--7--7-8-8-8-8-8-8--|
B|-10-10--------------------------------------------------------------------------|
G|--------------------------------------------------------------------------------|
D|--------------------------------------------------------------------------------|
A|--------------------------------------------------------------------------------|
E|--------------------------------------------------------------------------------|

This song uses a lot of improv. I've listened to three different versions of it and all
three are different, this is as close as I could get with my favorite of the three.
Comments