Incubus - Are You In Chords & Tabs

 

Are You In Chords & Tabs

Incubus Chords & Tabs

Version: 7 Type: Tab 0 ratings
1 star 2 stars 3 stars 4 stars 5 stars
comments

Are You In Tab

this is a dope mellow out song...something i like to "fade into"......enjoy and email me 
you have any changes or corrections

-------------------------------------------------------------------------|
-------------------------------------------------------------------------|
----2/4---x6-------------------------------------------------------------|
----2/4------------------------------------------------------------------|
-------------------------------------------------------------------------|
-------------------------------------------------------------------------|
 intro
[ Tab from: http://www.guitartabs.cc/tabs/i/incubus/are_you_in_tab_ver_7.html ]
--------------12--14-----------------------------------------------------|
--------10-12------------------------------------------------------------|
-------------------------------------------------------------------------|
-------------------------------------------------------------------------|
-------------------------------------------------------------------------|
-------------------------------------------------------------------------|
 little solo part during verse..

-------------------------------------------------------------------------|
--------------------------4b6--------------------------------------------|
---------2-4b6--4-----2---4b6--4-2-4b6---------------2-------------------|
-----2h4----------2h4------------------4-------2-2h4---4-----------------|
-----------------------------------------2-2h4---------------------------|
-------------------------------------------------------------------------|
 solo

-------------17----------------------------------------------------------|
-------10-12----12-------------------------------------------------------|
--9h11----------------9/11-9---------------------------------------------|
-------------------------------------------------------------------------|
-------------------------------------------------------------------------|
-------------------------------------------------------------------------|
 little thing after the solo
Comments