Incubus - Are You In Chords & Tabs

 

Are You In Chords & Tabs

Incubus Chords & Tabs

Version: 5 Type: Bass Tab

Are You In Bass Tab

this tab may seen a little different to the others but it is a very nice tab just try and youl see.
tabbed by j heaton

(intro)
G|-12/14-------------|-12/14-------------|-12/14----------------|
D|-12/14-------------|-12/14-------------|-12/14----------------|
A|-------------------|---------14--------|----------------------|
E|-------------------|--------------14--|-----------------------|

				(Drums start)
G|-12/14-------------|-12/14-------------|----14-16-14----------|
D|-12/14-------------|-12/14-------------|-------------16-------|
A|---------14--------|-------------------|----------------------|
E|--------------14--|-------------------|-----------------------|


(verse)x3
G|-------------------------------------------|
D|--------------------------------9----------|
A|-----------------------99--7---9-----------|
E|--10--77-55--00-22---2---7----7------------|

G|-----------------------------------------------|
D|-----------------------------------------------|
A|--------------------2-2-00-1-0-----------------|
E|-10--77-55--00-22------------------------------|

(chorus)2x
G|-----------------------------------|
D|-----------------------------------|
A|-5-5-5-5---------------------------|
E|---------5-5-5-5-2-2-2-2-2-2-2-----|

G|------------------------------------------|
D|------------------------------------------|
A|-5-5-5-5-----------------0h2-2/4-4/5(h)7--|
E|---------5-5-5-5-2-2-2-2------------------|

guitar solo
G|-------------------------------------------|
D|--------------------------------9----------|
A|-----------------------99--7---9-----------|
E|--10--77-55--00-22---2---7----7------------|

G|-----------------------------------------------|
D|-----------------------------------------------|
A|--------------------2-2-00-1-0-----------------|
E|-10--77-55--00-22------------------------------|

[ Tab from: http://www.guitartabs.cc/tabs/i/incubus/are_you_in_btab_ver_5.html ]
(verse)x2
G|-------------------------------------------|
D|--------------------------------9----------|
A|-----------------------99--7---9-----------|
E|--10--77-55--00-22---2---7----7------------|

G|-----------------------------------------------|
D|-----------------------------------------------|
A|--------------------2-2-00-1-0-----------------|
E|-10--77-55--00-22------------------------------|

(chorus)2x
G|-----------------------------------|
D|-----------------------------------|
A|-5-5-5-5---------------------------|
E|---------5-5-5-5-2-2-2-2-2-2-2-----|

G|------------------------------------------|
D|------------------------------------------|
A|-5-5-5-5-----------------0h2-2/4-4/5(h)7--|
E|---------5-5-5-5-2-2-2-2------------------|

   (right before bridge)
G|------------------------------------------|
D|------------------------------------------|
A|-5-5-5-5----------------------------------|
E|---------5-5-5-5-2-2-2---x2--x2--2/9------|


(bridge)7x
G|-----------------2--------|
D|---------2-4---4-----4-2--|
A|-------2-----2-----2------|
E|-2--0---------------------|

G|-----------------(2)----------------------14-16-14--------|
D|---------2-4---4-----------------------------------16-----|
A|-------2-----2--------------------------------------------|
E|-2--0----------------x17--12-12---7-7---------------------|


(verse)x2
G|-------------------------------------------|
D|--------------------------------9----------|
A|-----------------------99--7---9-----------|
E|--10--77-55--00-22---2---7----7------------|

G|-----------------------------------------------|
D|-----------------------------------------------|
A|--------------------2-2-00-1-0-----------------|
E|-10--77-55--00-22------------------------------|

(chorus)2x
G|-----------------------------------|
D|-----------------------------------|
A|-5-5-5-5---------------------------|
E|---------5-5-5-5-2-2-2-2-2-2-2-----|

G|------------------------------------------|
D|------------------------------------------|
A|-5-5-5-5-----------------0h2-2/4-4/5(h)7--|
E|---------5-5-5-5-2-2-2-2------------------|

this is a superb song it just takes time to play
have fun.