Incubus - Are You In Chords & Tabs

 

Are You In Chords & Tabs

Incubus Chords & Tabs

Version: 4 Type: Bass Tab 0 ratings
1 star 2 stars 3 stars 4 stars 5 stars
comments

Are You In Bass Tab

   
Song: Are You In?
Artist: Incubus
Album: Morning View

Key: A

Standard Tuning (EADG)

Intro
G |------14/16----|-----14/16------------|
D |------14/16----|-----14/16------------|
A |---------------|--------------14------| x 2
E |---------------|-----------------14\--|
               
                  Wait for the drum intro
G |--14/16-----|-------------------------|--------14h16p14--------|
D |--14/16-----|-------------------------|------------------16\---|
A |------------|-------------------------|------------------------|
E |------------|-------------------------|------------------------|


Verses
|------------------------------------|-------------------------------|
|------------------------------------|-------------------------------|
|--------------------------5---------|----------------12-x-14\-------|
|--10------10--7--5------------0--2--|---0-12-0-14-------------------|

|------------------------------------|--------------------------------------|
|------------------------------------|--------------------------------------|
|--------------------------5---------|---- (2)-(2) -----2-2-0-0-2-----------|
|--10------10--7--5------------0--2--|-----------------------------2-0------|
 
Repeat the above twice then before the chorus play this.

|--------------------------------------|------------------------------------|
|--------------------------------------|------------------------------------|
|--------------------------5-----------|---------------------------12-x-14\-|
|--10------10--7--5------------0--2----|---(2)-(2/)-----0-12-0-14-----------|

|------------------------------------|-------------------------------------|
|------------------------------------|-------------------------------------|
|--------------------------5---------|---- (2)-(2) -----2-2-0-0-0-2----0---|
|--10------10--7--5----------0--2--|---------------------------------2-----|

Chorus
[ Tab from: http://www.guitartabs.cc/tabs/i/incubus/are_you_in_btab_ver_4.html ]
|--------------------------------------|---------------------------------|
|--------------------------------------|---------------------------------|
|------5--5--5--5-5--------------------|---------------------------------|
|-----------------------5--5--5--5-5---|---2--2--2--2---2--2--2-2-2-2----|
                                                

|--------------------------------------|--------------------|--------------|
|--------------------------------------|--------------------|--------------|
|------5--5--5--5-5--------------------|--------------------|-2-2-3-4-5-5-7|
|------------------------5--5--5--5-5--|---2--2--2--2-------|--------------|
                                                                                 
Yeah it's pretty tricky, but you will pick up the timing sooner or later
                                                                                 
Bridge ;)
This here is the end of the chorus so don't get confused
|--------------------------------------|--------------------|---------------|
|--------------------------------------|--------------------|---------------|
|------5--5--5--5-5--------------------|--------------------|---------------|
|--------------------5--5--5--5-5------|--2-2--2--X--2--X---|--2/10\---3--0-|

|-------------------------------------------------|-----------------------|
|----------------5---------7-------5-------------|------------------------|
|-------------5---------7-------5-----7----------|------------------------|
|-----(0)-7--------0--9-------------------------|------3---0--------------|


Second last time play this,
|--------------------------------------------------------|------------------|
|-----------------5---------------7---(7)----5-----------|------------------|
|---------------5----------------7---------5----7--------|------------------|
|-------(0)--7-----------0----9--------------------------|-----3---0--------|

And finally,
|-----------------------------------|--------------------14h16p14-------|
|----------5--------7-------5-------|-----------------------------16\---|
|-------5---------7------5----7--X--|--12\------------------------------|
|-----7---------9-------------------|------x--10\--X-5------------------|

Finish with a chorus and a,
|-----------|
|-----------|
|-----------|
|------10---|

I'll Post Some More Tabs for incubus Later, takes a while.

Cheers
Jesse Armstrong
(Tetsuma4l)
421!!
Comments